Misc Unsigned Bands - Deathmachine - Eating Your Entrails tab

-------------------------------------------------------------------------------
			     Eating Your Entrails - Deathmachine
-------------------------------------------------------------------------------
Tabbed by: Konner Stauffer
Email: xbabysmasherx@gmail.com

Tuning: One Whole Step Down (Low to High: DGCFAD)
             Main Riff

d----------------------------------------------------------------------------|
A|---------------------------------------------------------------------------|
F|---------------------------------------------------------------------------|
C|---------------------------------------------------------------------------|
G|-----0-1-0-1-4444444455555555-(3 times)------0-1-0-------------------------|
D|-----0-1-0-1---------------------------------0-1-0-------------------------|
            (Hold last note)
             Main riff again
d----------------------------------------------------------------------------|
A|---------------------------------------------------------------------------|
F|---------------------------------------------------------------------------|
C|---------------------------------------------------------------------------|
G|-----0-1-0-1-4444444455555555-(6 times)-3-2-1-0---(11 times)-0-1-0---------|
D|-----0-1-0-1----------------------------3-2-1-0--------------0-1-0---------|
             (Hold last note)
              Rhythm behind solo
d---------------------------------------------------------------------------|
A---------------------------------------------------------------------------|
F---------------------------------------------------------------------------|
C---------------------------------------------------------------------------|
G-----------------2222222255555555-(4 times)--------------------------------|
D-1111111144444444----------------------------------------------------------|
             After solo
d--------------------------------------------------------------------------|
A--------------------------------------------------------------------------|
F--------------------------------------------------------------------------|
C-----------3-2-1-0---------3-2-1-0---------3-2-1-0---------3-2-1-(hold)---|
G---4-4-4-4-3-2-1-0-4-4-4-4-3-2-1-0-4-4-4-4-3-2-1-0-4-4-4-4-3-2-1----------|
D---4-4-4-4---------4-4-4-4---------4-4-4-4---------4-4-4-4----------------|

d--------------------------------------------------------------------------|
A--------------------------------------------------------------------------|
F--------------------------------------------------------------------------|
C--------------------------------------------------------------------------|
G-0-1-1-4444444455555555-(4 times)0-1-0-1-3333333344444444 (2 times)-0-1-0-|
D-0-1-0---------------------------0-1-0-1----------------------------0-1-0-|
                (Hold the last open again)
        Thats the entire rhythm part, the solo was improvised, so make up whatever you 
for that part.

************************************

| /   slide up
| \   slide down
| h   hammer-on
| p   pull-off
| ~   vibrato
| +   harmonic
| x   Mute note
| b   Bend
| pb  Pre-bend
| br  Bend release
| pbr Pre-bend release
| brb Bend release bend

************************************
Tap to rate this tab
 
# A B C D E F G H I J K L M N O P Q R S T U V W X Y Z