Misc Unsigned Bands - Kurran And The Wolfnotes - What A Bitch tab

Band: Kurran and The Wolfnotes
Song: What a Bitch
Album: N/A
Tabbed By: Charlie Wood
Tuning: Standard

Not sure if this is 100% how he plays it on the recording, pretty sure its how he 
plays it live tho...

Whatabitch Intro

|-----------------------------------|
|-5-5-5-9~-5-5-9-7-5----------------|
|--6-6-6----6-6---6-----------------|
|-----------------------------------|
|-----------------------------------|
|-----------------------------------|

|-----------------------------------|
|--5-9p5-7p5---5--------------------|
|-6-----6---6-6--x3-----------------|
|-----------------------------------|
|-----------------------------------|
|-----------------------------------|


|-----------------------------------|
|-9-7--5--10-9~---------------------|
|-------6---------------------------|
|-----------------------------------|
|-----------------------------------|
|-----------------------------------|

Great band, Amazing song, hope for good things to come!
Any comments welcome, please help!
Tap to rate this tab
 
# A B C D E F G H I J K L M N O P Q R S T U V W X Y Z