Misc Unsigned Bands - Killrape - Damned Church tab

Damned Church (Killrape)

C tuning

--------------------------

intro bass only

-----(4x)-----

Eb|-------------16-15-----|
Bb|-14-16-17-14-------14--|
F |-----------------------|
C |-----------------------|


Eb|-------------17-16-----|
Bb|-14-16-17-14-------16--|
F |-----------------------|
C |-----------------------|

------(1x)----

Eb|-------------16-15-----|
Bb|-14-16-17-14-------14--|
F |-----------------------|
C |-----------------------|


bass and 2 guitars

Eb|-------------------|
Bb|-------------------|
F |-2-----------------|
C |-0-----------------|

riff 01


Eb|-----------------------------------|
Bb|-----------------------------------|
F |-----------------------------------|
C |-0-0-0-0-2-2-2-2-3-3-3-3-3-3-3-3---|

chorus

Eb|------------------------------------|
Bb|------------------------------------|
F |------------------------------------|
C |-5-5-5-5-6-6-6-(slide)--------------|


Eb|-------------------|
Bb|-------------------|
F |---------------2-2-|
C |-5-5-5-5-0-----0-0-|


final

Eb|-------------------------------------|
Bb|-------------------------------------|
F |-----------------5---5---4---2-------|
C |-0-0-0-0-2-2-2-2-3---3---2---0-------|
Tap to rate this tab
 
# A B C D E F G H I J K L M N O P Q R S T U V W X Y Z