Song name
# A B C D E F G H I J K L M N O P Q R S T U V W X Y Z

Misc Unsigned Bands - Killrape - Born Once Again tab

Born once again (Killrape)

C tuning

--------------------------

intro


Eb|-------------------|
Bb|-9-----------------|
F |-7-----------------|
C |-7-0-0-0-0-0-0-0---|

Eb|-------------------|
Bb|-8-----------------|
F |-6-----------------|
C |-6-0-0-0-0-0-0-0---|

Eb|-------------------|
Bb|-9---6---8---4-----|
F |-7---3---6---2-----|
C |-7---3---6---2-----|


riff 1

Eb|------------------------------|
Bb|------------------------------|
F |-2-----------3-3--------------|
C |-0-0-0-4-3-0-----3-3-4-4-1-1--|

before singing (1x)

Eb|------------------------------|
Bb|------------------------------|
F |-2-----------3----------------|
C |-0-0-0-4-3-0---4-3-1-0-1-3-4--|


chorus (rhythm)

Eb|---------------------------------|
Bb|---------------------------------|
F |-7-7-7-7-7-7-7-7-6-6-6-6-6-6-6-6-|
C |---------------------------------|

Eb|---------------------------------|
Bb|---------------------------------|
F |-7-7-7-7-7-7-7-7-3-3-3-3-2-2-2-2-|
C |---------------------------------|


riff 2 (4x)

Eb|--------------------|
Bb|--------------------|
F |-----------------7--|
C |-0-4-5-7-8-7-5-4-4--|


riff blast

Eb|-------------------------------|
Bb|-------------3-2-------------1-|
F |-----------------3-3-3-0-2-3---|
C |-1-1-1-1-1-1-------------------|


Eb|-------------------------------|
Bb|-------------3-2-------------1-|
F |-----------------3-3-3-0-2-3---|
C |-0-0-0-0-0-0-------------------|


intro

solo

Eb|---------------------|
Bb|---------------------|
F |-------------6-------|
C |-3-3-3-3-6-3---6-7-4-|

riff 1

chorus

solo 2


Eb|-----------------------------------|
Bb|-----------------------------------|
F |-----------------------------------|
C |-0-0-0-0-0-0-0-0---0-0-0-0-0-0-0-0-|


riff 3 (rhythm) (2x)


Eb|---------------------|
Bb|---------------------|
F |-2-2-------2-2-------|
C |-0-0-------0-0-------|

intro
Tap to rate this tab
 
# A B C D E F G H I J K L M N O P Q R S T U V W X Y Z