Song name
# A B C D E F G H I J K L M N O P Q R S T U V W X Y Z

Misc Unsigned Bands - Killrape - Darkness tab

Darkness (Killrape)

www.killrape.com

C tuning

--------------------------


intro (rhythm guitar only)


Eb|-----------------------------------------------|
Bb|-----------------------------------------------|
F |--2--2--2--2-3--3--3--3-5--5--5--5-7--7--7--7--|
C |-0--0--0--0-0--0--0--0-0--0--0--0-0--0--0--0---|

intro 2 (band) - 4x

Eb|-------------------------------|
Bb|-------------------------------|
F |333----555----222----333-------|
C |111----333----000----111-------|

main riff

Eb|---------------------------------|
Bb|---------------------------------|
F |2-2-4-4-2-2-4-4------------------|
C |0-0-2-2-0-0-2-2-0-2-5-0-1-4-3-0--|

bridge 2x

Eb|----------------------|
Bb|----------------------|
F |-9-9-9-5----7-7-7-3---|
C |-7-7-7-3----5-5-5-1---|

chorus

Eb|--------------|
Bb|--------------|
F |-2-2-2-4-3----|
C |-0-0-0-2-1----|


solo (rhythm guitar)

Eb|-------------------|
Bb|-------------------|
F |-------------------|
C |-2-2-5-5-1-1-4-3---|


riff 2

Eb|------------------------|
Bb|-------------------3----|
F |-2--7--3-------1-3------|
C |-0--5--1-1-3-4----------|

Eb|------------------------|
Bb|------------------------|
F |-2--7--3-------1-3-4----|
C |-0--5--1-1-3-4----------|


bridge 2x

Eb|----------------------|
Bb|----------------------|
F |-9-9-9-5----7-7-7-3---|
C |-7-7-7-3----5-5-5-1---|

chorus

Eb|--------------|
Bb|--------------|
F |-2-2-2-4-3----|
C |-0-0-0-2-1----|
Tap to rate this tab
 
# A B C D E F G H I J K L M N O P Q R S T U V W X Y Z