Misc Unsigned Bands - Retake - Random Tune tab

E----------------|
B----------------|
G----------------|
D----14-15-14----|   X2
A--12------------|
E----------------|

E-------------------------|
B-------------------------|
G-------------------------|
D----14-15-14-17-14-19-14-|
A--12---------------------|
E-------------------------|

E----------------|
B----------------|
G----------------|
D----14-15-14----|   X2
A--10------------|
E----------------|

E-------------------------|
B-------------------------|
G-------------------------|
D----14-15-14-17-14-19-14-|
A--10---------------------|
E-------------------------|

                               Guitar 2
Not to sure about it yet but this might go ok, unless you want to play like a differnt 
tune alongside...

E------------------------------------------|
B------------------------------------------|
G------------------------------------------|
D---------------------------77777777777777-|
A--777777777777755555555555555555555555555-|
E--55555555555553333333333333--------------|

You play those powerchords alot more than whats shown, I just couldnt be bothered 
to count them all.

EthanWilliamson.
Tap to rate this tab
 
# A B C D E F G H I J K L M N O P Q R S T U V W X Y Z