Song name
# A B C D E F G H I J K L M N O P Q R S T U V W X Y Z

Misc Unsigned Bands - Mark Mejia - Somebodys Baby chords

Highlighted       Show chord diagrams
WARNING - IT'S MY FIRST GUITAR CHORDS/TABBING SUBMISSION :P

                  THIS IS BY EAR

***CAPO ON 3RD FRET***
***CAPO ON 3RD FRET***
***CAPO ON 3RD FRET***

STRUMMING PATTERN -

      A         C#m     B         E
e --------------------------------------|
B -------------0-0------0-0-------------|
G ----0-0------0-0------0-0------0-0----|
D ----0-0------0-0------0-0------0-0----|
A ----0-0----0--------0----------0-0----|
E --0--------------------------0--------|

(OPTIONAL SLAPS BETWEEN CHORD TRANSITIONS)


      A         C#m        B         E

e ----x----------x---------x---------x------------|
B ----x----------5---------4---------x------------|
G ----6----------6---------4---------1------------|
D ----7----------6---------4---------2------------|
A ----7----------4---------2---------2------------|
E ----5----------x---------x---------0------------|


CAUTION: LISTEN TO THE SONG AND
YOU'LL KNOW WHERE TO PUT THE REST
OF THE CHORDS IN. THE CHORDS MAY
CHANGE RHYTHM THROUGHOUT THE SONG
BUT IT STILL USES THESE CHORDS.


Intro: A C#m B E (2x)

Chorus:

A       C#m                 B
  She's probably somebody's only light
E
Gotta shine tonight
A
Ooooh,
      C#m                 B        E
She's gotta be somebody's baby tonight
(2x)

  A                            C#m
I like the way she's making me feel inside
 B                 E
I can't deny she's beautiful
A
She's walking right and talking right
C#m
This girl is so fly
B                  E
She's just so unbelievable

A               C#m
But a girl like that would be
B                E
too far outta my league
A                        C#m
She's gotta be someone's baby
B
Can't be with me
E
She's gotta be

(Chorus)
Oh what I get to say that
She is mine all mine
What if she's not somebody's baby?
Give me a sign

I'm hopeless, baby
Help me, baby
give me a sign

Baby I think
Crazy she's too good for me
She can never be my baby
Why can't i see
She's gotta be

(Chorus)

Gotta be,
gotta be,
gotta be somebody's only light
gotta shine tonight (6x?)
make her mine tonight
Tap to rate this tab
 
# A B C D E F G H I J K L M N O P Q R S T U V W X Y Z