Song name
# A B C D E F G H I J K L M N O P Q R S T U V W X Y Z

Misc Unsigned Bands - Sickened By The City - Our Last Goodbyes tab

Artist: Sickened By The City
Song:   Our Last Goodbyes
Album:  ?, 2010
Tuning: Drop C (C,G,C,F,A,D)

  Intro
D|----------------------------|
A|----------------------------|
F|----------------------------|
C|----------------------1-1-1-|
G|-00000-------00000000-1-1-1-|
C|-00000-------00000000-------|
 | .....       ........       |
D|----------------------------|
A|----------------------------|
F|----------------------------|
C|----------------------------|
G|-------00000-00000000-1-1-1-|
C|-------00000-00000000-1-1-1-|
         ..... ........
  Verse
D|----------------------------|
A|----------------------------|
F|----------------------------|x8 (lst time ring out)
C|----------------------1-1-1-|
G|-00000-00000-00000000-1-1-1-|
C|-00000-00000-00000000-------|
   ..... ..... ........
  2-step
D|-------------------------|
A|-------------------------|
F|-8\6/8\6/9\7/9\7/8\6/8\6-|
C|-------------------------| (each note is played 16 times)
G|-6\4/6\4/7\5\7\5/6\4/6\4-|
C|-------------------------|

  YOUR FUCKING!

  1st Breakdown
D|-------------|----------------|-------------|----------------|
A|-------------|----------------|-------------|-------------10-|
F|-------------|----------------|-------------|-------------13-|
C|-------------|----------------|-------------|----------------|
G|-000-000-000-|-000-000-000-3*-|-000-000-000-|-000-000-000----|
C|-000-000-000-|-000-000-000----|-000-000-000-|-000-000-000----|
   ... ... ...   ... ... ...      ... ... ...   ... ... ...

D|-----13------|
A|-------10----|
F|---------13--|
C|-------------|
G|-------------|
C|-000---------|
 | ...         |x4
D|-------------|
A|-------------|
F|-------------|
C|-------------|
G|-000-000-000-|
C|-000-000-000-|
   ... ... ...
D|-------------|
A|-------------|
F|-------------|
C|-------------|x4
G|-000-000-000-|
C|-000-000-000-|
   ... ... ...

  Fill
D|-------------------------------|-------------------------------|x6
A|-------------------------------|-------------------------------|
F|-------------------------------|-----------------------5h7-4h6-|1st time:
C|-----------------------2h5-1h4-|---------------5h7-4h6---------|1 guitar
G|----5h7-4h6----5h7-4h6---------|----5h7-4h6--------------------|2+ times:
C|-00---------00-----------------|-00---------00-----------------|both.
   ..         ..                   ..         ..
D|---------|    |-------|
A|---------|    |-------|
F|---------|    |-------|
C|---------|x4  |-------|
G|-000-000-|    |-3*----|
C|-000-000-|    |----3*-|
   ... ...

cool synth part
                         2nd Breakdown
D|------------|         |-0-0-0-|
A|------------|         |-4-4-4-|
F|------------|         |-------|
C|------------|x5       |-------|
G|-3-2-1-2--2-|         |-------|
C|-3-2-1-2--2-|         |-------|
   . . . .  .

D|----------------------0-0-0-|
A|----------------------4-4-4-|
F|----------------------------|
C|----------------------------|
G|-00000-00000-00000000-------|
C|-00000-00000-00000000-------|
   ..... ..... ........

D|----------------------0-0-0-|
A|----------------------4-4-4-|
F|----------------------------|
C|----------------------------|
G|-00000-00000-00000000-------|
C|-11111-11111-11111111-------|
Tap to rate this tab
 
# A B C D E F G H I J K L M N O P Q R S T U V W X Y Z