Misc Unsigned Bands - Games Of Slaughter - Let The Games Begin tab

Tuning: CGCFAD

  INTRO:                 
D|--------17----18----17--|
A|--15-15----15----15-----|
F|------------------------|
C|------------------------| x12
G|------------------------|
C|------------------------|

Let The Games Begin...

D|--------------------------------------|
A|---------------------------12-12-12~--|
F|---------------------------17-17-17~--|
C|--------------------------------------|
G|--x-x--x-x--x-x--x-x--x-x-------------|
C|--x-x--x-x--x-x--x-x--x-x-------------|

   
D|--------------------------------------------------------------------|
A|--------------------------------------------------------------------|
F|--------------------------------------------------------------------|
C|--------------------------------------------------------------------|
G|--------------------------------------------------------------------|
C|--2050205020502030205020502050203020502050205020302050205020502030--|
                                                
  Main Riff
D|------------------------------|
A|------------------------------|
F|------------------------------|
C|------------------------------| x10
G|------------------------------|
C|--000(3)-000(2)-532320532320--|

  
D|---------------|
A|---------------|
F|---------------|
C|---------------| x4
G|---------------|
C|--0000000004~--|
 
  Repeat Main Riff 10 more times

  
D|----------------------------------------|
A|----------------------------------------|
F|--7-7-9-9-7-7-9-9-7-7-9-9-12-12-10-10---|
C|----------------------------------------|
G|----------------------------------------|
C|----------------------------------------|


D|-----------------------------------|
A|-----------------------------------|
F|-----------------------------------|
C|-----------------------------------| x4 (this is all muted)
G|--x-x-2-2-x-x-2-2-x-x-2-2-5-5-3-3--|
C|--x-x-2-2-x-x-2-2-x-x-2-2-5-5-3-3--|

  Riff 2
D|------------------------------|
A|------------------------------|
F|------------------------------|
C|------------------------------| x4 
G|--x-x----x-x----x-x-----------|
C|--x-x-2~-x-x-2~-x-x-2~-5~-3~--|

Bass Break, Then Solo, which is random every time, the Repeat Riff 2 3 times and and with this:

  Outro
D|-------------------------------|
A|-------------------------------|
F|-------------------------------|
C|-------------------------------| 
G|--x-x----x-x----------------0--|
C|--x-x-2~-x-x-2~-5323205323200--|

  End Song
Tap to rate this tab
 
# A B C D E F G H I J K L M N O P Q R S T U V W X Y Z