Song name
# A B C D E F G H I J K L M N O P Q R S T U V W X Y Z

Misc Unsigned Bands - Gotcha - Fonky Farm tab

Fonky Farm
Gotcha!

Intro/couplet:

Gitaar: Feedback.

Bas: something like:

|--------------------------------------------------|
|--------------------------------------------------|
|-2-2-2-0-2-2-0-2-0----4-4-4-0---------------------|
|----------------------------------2-2-2-0-2-0—----|

Gitaar:

|---------------------------------|
|---------------------------------|
|--4-3-2--------------------------|
|-----------------4-3-2-----------|
|---------------------------------|
|---------------------------------|


Refrein: Like a roll........

Deze akkoorden:

        D           E           Gm       Am      Gm
|--------------------------------3---------5-----3--|
|----15-------17-----------------3---------5-----3--|
|----14-------16-----------------3---------5-----3--|
|----12-------14-----------------5---------7-----5--|
|--------------------------------5---------7-----5--|
|--------------------------------3---------7-----3--|






  B             A                E
I wonder, I wonder, I wonder

Break: A  A   Bb   B

Couplet

Refrein

I wonder......

Break

Tijdens Synth geluid:
  |:  A   B :|
 
                                D      E      G
Im begining to be……  

Refrein

Tijdens Sax solo:

Bas:

|------------------------------|
|-----------9-7-9--------------|
|----------------------7-7h9---|
|-----7------------------------|

Tijdens orgel solo: Bas couplet

Kort couplet en refrein

I wonder stuk: Say yeah!

Welcome to the fonky farm:

A

 Maybe baby we can time to shake
C

Oh oh oh shit

?????????

I wonder..........


Tab by SG of funk band Super Nova.
http://supernovamusicsound.hyves.nl/

Play on own risk.
Mistakes can be made.
Tap to rate this tab
 
# A B C D E F G H I J K L M N O P Q R S T U V W X Y Z