Song name
# A B C D E F G H I J K L M N O P Q R S T U V W X Y Z

Misc Unsigned Bands - A Bird A Sparrow - Ten And Two tab

A Bird A Sparrow
Ten & Two (Intro)

e)---------3---------------------5---------------|
B)-----------------------------------------------|
G)------0------0-----0--------0------0-----0-----|
D)---2------------2---------4-----------4--------|
A)-3---------------------5-----------------------|
E)-----------------------------------------------|

e)---------7---------------------10--------------|
B)-----------------------------------------------|
G)------0------0-----0--------0------0-----0-----|
D)---5------------5---------5-----------5--------|
A)-7---------------------7-----------------------|
E)-----------------------------------------------|

This is all I have for this song so far. I'm pretty sure it's right. If you have any 
or comments, let me know - th3silentcircus@yahoo.com
Tap to rate this tab
 
# A B C D E F G H I J K L M N O P Q R S T U V W X Y Z