Song name
# A B C D E F G H I J K L M N O P Q R S T U V W X Y Z

Misc Unsigned Bands - Dead Company - Armageddon tab

Armageddon original song by Dead Company

   Intro
E||------------------------------------------|------------------------------|
B||------------------------------------------|------------------------------|
G||------------------------------------------|------------------------------|
D||-----7----------7----------2-----------2--|------------------------------|
A||-----7----------7----------2-----------2--|--2--2--2--2--2--2--2--2--2--2|
D||-----7----------7----------2-----------2--|--2--2--2--2--2--2--2--2--2--2|
                  x2                         |--------------pm--------------|


   Verse
E||------------------------|--------------------------|
B||------------------------|--------------------------|
G||------------------------|--------------------------|
D||--7--------7----7--6----|--------------------------| x8
A||--7--------8----7--6----|--6--6--6--6--6--6--6--6--|
D||--7----7-7-7----7--6----|--6--6--6--6--6--6--6--6--|
                              pm pm pm pm pm pm pm pm



Chorus
------------------------|------------------------|
------------------------|------------------------|
------------------------|------------------------|
--7-------7--6-------6--|--3-------3--2-----1----| x8
------------------------|------------------------|
--7-------7--6-------6--|--3-------3--2-----1----|


Bridge
------------------------|-----------------|--------------------|
------------------------|-----------------|--------------------|
------------------------|-----------------|--------------------|
--7--------7--7--------7|--7-7-7-7-7-7-7-7|--7-----7-----7-----|
--7--7--7--7--8--7--7--8|--7-7-7-7-7-7-7-7|--7-----7-----7-----|
--7--7--7--7--7--7--7--7|--7-7-7-7-7-7-7-7|--7-----7-----7-----|
           x4                   x3



Last chorus is the same as 1st and 2nd, only more picking per note.

Pm - Palm mute
Tap to rate this tab
 
# A B C D E F G H I J K L M N O P Q R S T U V W X Y Z