Misc Unsigned Bands - Kids - New Song tab

-------------------------------------------------------------------------------
			     New Song - Kids
-------------------------------------------------------------------------------
Tabbed by: Martin Petkovski
Email: chill.bt@live.com

Tuning: Standard
Capo: 3rd fret

Intro:
      Em          Em         Gmaj13      G      Gmaj13
e|---------------------------------------------------------|
B|---------------------------------------------------------|
G|-----------0----------0----------0-----------------------|
D|--------2-----------2----------0----------0--------0-----|
A|-----2-----------2----------0----------2---------0-------|
E|--0-----------0----------2----------3---------2----------|

Verse:
          Em           Em           Gmaj13       G     Gmaj13
e|--------------------------------------------------------------|
B|--------------------------------------------------------------|
G|--------0-------------0-------------0-------------------------|
D|------2---2---2-----2---2---2-----0---0---0-----0-------0-----|
A|----2-------2-----2-------2-----0-------0-----2---2---0---0---|
E|--0-------------0-------------2-------------3-------2---------|

Chorus: Em A G A
Tap to rate this tab
 
# A B C D E F G H I J K L M N O P Q R S T U V W X Y Z