Misc Unsigned Bands - Dead Company - Tellus tab

Intro

Guitar 1

     E  E  E  E  E  E  E  E     E  E  E  E  Q     Q     
E||--------------------------|-------------------------|
B||--------------------------|-------------------------|
G||--2--------3--------1-----|-----2-------------------|
D||--0--0--0--0--0--0--0--0--|--0--0--0--0--3s----5----| x4
A||--------------------------|--------------5s----7----|
D||--------------------------|-------------------------|

Guitar 2

   Q     E   E   Q     E   E        Q     Q     E  E   E   E   
E||------------------------------|-----------------------------|
B||------------------------------|-----------------------------|
G||--14----13--14--15----14--13--|--14s----7----10--9--10--12--| x2
D||------------------------------|-----------------------------|
A||------------------------------|-----------------------------|
D||------------------------------|-----------------------------|

   Q     E   E   Q     E   E      Q     Q     E  E   E   E   
------------------------------|------------------------------|
------------------------------|------------------------------|
--14----13--14--15----14--13--|---14s----7--9-7-6--7--9--10--|
------------------------------|------------------------------|
------------------------------|------------------------------|
------------------------------|------------------------------|

   Q     E   E   Q     E   E      W                  
------------------------------|------------------------------|
------------------------------|------------------------------|
--14----13--14--15----14--13--|--14b-------------------------|
------------------------------|------------------------------|
------------------------------|------------------------------|
------------------------------|------------------------------|

Verse

Guitar 1

  Q    S S E  E  E  E  E     E  E  E  E  E  E  E  E   
--------------------------|--------------------------|
--------------------------|--------------------------|
--------------------------|--------------------------|
--0----x-x-3--2-----3--1--|-----1-----1-----1--2--3--| x8
--0----x-x-3--2-----3--1--|-----1-----1-----1--2--3--|
--0----x-x-3--2--x--3--1--|--x--1--x--1--x--1--2--3--|

Guitar 2

  Q    S S E  E  E  E  E     E  E  E  E  E  E  E  E   
--------------------------|--------------------------|
--------------------------|--------------------------|
--------------------------|--------------------------|
--0----x-x-3--2-----3--1--|-----1-----1-----1--2--3--| x4
--0----x-x-3--2-----3--1--|-----1-----1-----1--2--3--|
--0----x-x-3--2--x--3--1--|--x--1--x--1--x--1--2--3--|

  E  E  E  H            E  E  E  H          
-----------5~--------|---------------------|
--------6------------|--------6--4~--------|
-----7---------------|-----7---------------|
--7------------------|--7------------------|
---------------------|---------------------|
---------------------|---------------------|

  E  E  E  H            E  E  E  Q     H          
-----------8~--------|---------------------------|
--------6------------|---------------------------|
-----7---------------|-----7----------10~--------|
--7------------------|--7-----7--8---------------| x4
---------------------|---------------------------|
---------------------|---------------------------|


Chorus

  H        Q     Q       H         H         
||----------------------|---------------------|
||----------------------|---------------------|
||--7--------9----10----|--9--------10--------|
||----------------------|---------------------|
||--5--------7-----8----|--7---------8--------|
||----------------------|---------------------|

  Q    Q    H           H         Q    Q     
---------------------|----------------------||
---------------------|----------------------||
--5----7----3--------|--2--------10----9----||
---------------------|--2-------------------|| x2
--3----5----1--------|--0---------8----7----||
---------------------|----------------------||


Bridge

  E  E  E  E  E  E  E  E   
--------------------------|
--------------------------|
--------------------------|
--0--------0--------0-----| x8
--0--------0--------0-----|
--0--0--0--0--0--0--0--0--|

Tap to rate this tab
 
# A B C D E F G H I J K L M N O P Q R S T U V W X Y Z