Misc Unsigned Bands - Boys Will Be Boys - Make This Count tab

"Make This Count"
by: Boys Will Be Boys

Tuning: Drop D

VERSE 1
E|-----------------------------------------------------------|
B|-----------------------------------------------------------|
G|-----------------------------------------------------------|
D|--x---x---x--------x-x-x-7--7--7--7--7--7--7--7--7--7--7---|
A|--x---x---x--------x-x-x-7--7--7--7--7--7--7--7--7--7--7---|
D|--x---x---x--------x-x-x-7--7--7--7--7--7--7--7--7--7--7---|
                           Hayley don't hate me it wasn't me

E|-----------------------------------------------------------|
B|-----------------------------------------------------------|
G|-----------------------------------------------------------|
D|-7--7--7-7-9--9--9--9--9--9--9-----------------------------|
A|-7--7--7-7-7--7--7--7--7--7--7-----------------------------|
D|-7--7--7-7-6--6--6--6--6--6--6-----------------------------|
  It was the way that your friend

E|-----------------------------------------------------------|
B|-----------------------------------------------------------|
G|---------7--7--7--7--7--7--7-------------------------------|
D|-9--9-9--0--0--0--0--0--0--0-------------------------------|
A|-7--7-7--0--0--0--0--0--0--0-------------------------------|
D|-6--6-6--0--0--0--0--0--0--0-------------------------------|
  Yeah the way she came on to me

E|-----------------------------------------------------------|
B|-----------------------------------------------------------|
G|-------------------------1--1--1---------------------------|
D|-7--7--7--7--7--7--7--7--2--2--2---------------------------|
A|-x--x--x--x--x--x--x--x--2--2--2---------------------------|
D|-4--4--4--4--4--4--4--4------------------------------------|
  And even though you forgave me

E|-----------------------------------------------------------|
B|-----------------------------------------------------------|
G|-1--1--1--1--2--2--2---------------------------------------|
D|-2--2--2--2--0--0--0---------------------------------------|
A|-2--2--2--2--0--0--0---------------------------------------|
D|-------------x--x--x---------------------------------------|
   Something's wrong

E|-----------------------------------------------------------|
B|-----------------------------------------------------------|
G|-----------------------------1--1--1--1--1-----------------|
D|-7--7--7--7--7--7--7--7--7---2--2--2--2--2-----------------|
A|-x--x--x--x--x--x--x--x--x---2--2--2--2--2-----------------|
D|-4--4--4--4--4--4--4--4--4---------------------------------|
   I don't need your heart to bleed cause

E|-----------------------------------------------------------|
B|-----------------------------------------------------------|
G|------2--2--2--2--2--2~~-----------------------------------|
D|------0--0--0--0--0--3~~-----------------------------------|
A|------0--0--0--0--0--0~~-----------------------------------|
D|------x--x--x--x--x--x~~-----------------------------------|
   Your heart is all I need


CHORUS
E|--------------------------------------------------------------|
B|--------------------------------------------------------------|
G|--------------------------------------------------------------|
D|-7--7--7--7--7--7--7--7--7--7--7------------------------------|
A|-7--7--7--7--7--7--7--7--7--7--7------------------------------|
D|-7--7--7--7--7--7--7--7--7--7--7------------------------------|
   Hey baby lets shout shout crazy

E|-----------------------------------------------------------|
B|-----------------------------------------------------------|
G|-----------------------------------------------------------|
D|-2--2--2--2--2--2--2--2--2--2--2--2--2--2--2--2--2--2--2---|
A|-2--2--2--2--2--2--2--2--2--2--2--2--2--2--2--2--2--2--2---|
D|-2--2--2--2--2--2--2--2--2--2--2--2--2--2--2--2--2--2--2---|
   We're young and in love and You're my best best buddy

E|-----------------------------------------------------------|
B|-----------------------------------------------------------|
G|-------1--1--1--1-2--2-------------------------------------|
D|-7--7--2--2--2--2-0--0-------------------------------------|
A|-x--x--2--2--2--2-0--0-------------------------------------|
D|-4--4-------------x--x-------------------------------------|
  We can make this count


VERSE 2
E|-----------------------------------------------------------|
B|-----------------------------------------------------------|
G|-----------------------------------------------------------|
D|-7--7--7--7--7--7--7--7--7--7--7---------------------------|
A|-7--7--7--7--7--7--7--7--7--7--7---------------------------|
D|-7--7--7--7--7--7--7--7--7--7--7---------------------------|
  Hayley I know you must be crazy

E|-----------------------------------------------------------|
B|-----------------------------------------------------------|
G|-----------------------------------------------------------|
D|-2--2--2--2--2--2--2--2--2--2--2--2------------------------|
A|-2--2--2--2--2--2--2--2--2--2--2--2------------------------|
D|-2--2--2--2--2--2--2--2--2--2--2--2------------------------|
  Hearing everyone bad mouth me, stop

E|-----------------------------------------------------------|
B|-----------------------------------------------------------|
G|----------------------1--1--1--1--1--1--2--2--2--2---------|
D|-7--7--7--7--7--7--7--2--2--2--2--2--2--0--0--0--0---------|
A|-x--x--x--x--x--x--x--2--2--2--2--2--2--0--0--0--0---------|
D|-4--4--4--4--4--4--4--------------------x--x--x--x---------|
   Stop talking to your friends 'cause I hate them

E|-----------------------------------------------------------|
B|-----------------------------------------------------------|
G|-----------------------------1--1--1--1--1-----------------|
D|-7--7--7--7--7--7--7--7--7---2--2--2--2--2-----------------|
A|-x--x--x--x--x--x--x--x--x---2--2--2--2--2-----------------|
D|-4--4--4--4--4--4--4--4--4---------------------------------|
   I don't need your heart to bleed cause

E|-----------------------------------------------------------|
B|-----------------------------------------------------------|
G|------2--2--2--2--2--2--2--2-------------------------------|
D|------0--0--0--0--0--0--0--0-------------------------------|
A|------0--0--0--0--0--0--0--0-------------------------------|
D|------x--x--x--x--x--x--x--x-------------------------------|
   Your heart is all I need

E|-----------------------------------------------------------|
B|-----------------------------------------------------------|
G|-------------------1--1--1--1--1---------------------------|
D|-7--7--7--7--7--7--2--2--2--2--2---------------------------|
A|-x--x--x--x--x--x--2--2--2--2--2---------------------------|
D|-4--4--4--4--4--4------------------------------------------|
  Open your eyes and you'll see,

E|-----------------------------------------------------------|
B|-----------------------------------------------------------|
G|----2--2--2--2--2--2--2--2--2--2--2--2--2~~----------------|
D|----0--0--0--0--0--0--0--0--0--0--0--0--3~~----------------|
A|----0--0--0--0--0--0--0--0--0--0--0--0--0~~----------------|
D|----x--x--x--x--x--x--x--x--x--x--x--x--x~~----------------|
  And you'll come back to me, yeah back to me

(CHORUS CHORDS)
 Hey baby
 Lets shout shout crazy
 We're young and in love and you're my
 Best best buddy
 We can make this count
 Hey baby lets shout shout crazy
 I know we can work this out.
 We can make this count
Tap to rate this tab
 
# A B C D E F G H I J K L M N O P Q R S T U V W X Y Z