Song name
# A B C D E F G H I J K L M N O P Q R S T U V W X Y Z

Misc Unsigned Bands - Yelpe - Cold Memory tab

I came up with this simple riff while thinking about the Mt. Everest..
The beautiful images, and the deadly nights...
h-hammer on
p-pull off
lr-let it ring out


|--------2-------2-------0-------0-------0-------0-0---|
|----3-------3-------2-------2-------0-------0-----2---|
|------2-------2-------2-------2-------2-------2---2---|
|--0-------0-------2-------2-------2-------2-------2---| Play twice
|--------------------------------------------------0---|
|--------------------------------------------------0---|


|--0h1p0-------------------|
|--------0lr---------------|
|---------------0h1p0------|
|---------------------0lr--| Play twice
|--------------------------|
|--------------------------|


|--8--8--h9--8--8--h9--|
|----------------------|
|----------------------|
|----------------------| Play twice 
|----------------------|
|----------------------|


|--8-|
|--8-|
|--8-|
|--0-| Play 6 times with a down/up strumming pattern 
|--0-|
|--0-|


|--9-|
|--9-|
|--9-| 
|--0-| End abruptly with this note
|--0-|
|--0-|
Tap to rate this tab
 
# A B C D E F G H I J K L M N O P Q R S T U V W X Y Z