Song name
# A B C D E F G H I J K L M N O P Q R S T U V W X Y Z

Misc Unsigned Bands - 7 Inches - Retired Cat tab

Intro:
e -------15---15-----13-12-----------15----15----13-12---------------|
B ----15---15----15--------15-----15----15----15------13-15----------|
G --12-------------------------12------------------------------------|
D -------------------------------------------------------------------|
A -------------------------------------------------------------------|
E -------------------------------------------------------------------|
   Repeat 4x while Bass at the 2nd time and rhythm at the 3rd time

Rhythm Guitar: G  D  C    G  E  C

     All Verses are palm muted

       G                   D      C
Verse: Sa umpisa lang ako nasiyahan
       G                      E   C
       Naghihintay na lang ng uwian
       G                   D     C
       Yan ang aking mga naranasan
       G                     E   C
       Patatayuin ka lang sa arawan

        C        D        E           C
Bridge: Pinagpapawisan na ba kayo diyan?
        C            D         E             C
        Halina't sumama sa'kin,kayo'y malibang
        C            D    E       C
        Wala naman kayong maaasahan
           C          D        E       C
        Sa pagtaas ng ranko na inaabangan

          G           D      C
Chorus: Sinasaluduhan ako dati
          G                     E     C
        Ngunit ngayon sila'y ngumingiti
         G                 D     C
        Hindi na ako tulad ng dati
         G                           E D C
        Oh kay saklap maging retired C A T

        Repeat Intro (rhythm only)

        G                   D   C
Verse2: Weekly nalang ako naukaan
        G              E          C
        Kinakausap ako nang harapan
        G                 D     C
        Yan ang aking mga dahilan
        G                      E       C
        Kung bakit ako ngayon tinanggalan

       Repeat Bridge

       Repeat chorus

Solo: e ------15---15----13-12-------15---15----------------|
      B ---15---15----15------15---15--15---15--17-13-------|
      G -12----------------------12------------------12-----|
      D ----------------------------------------------------|
      A ----------------------------------------------------|
      E ----------------------------------------------------|

      e -------15---15----13-12----------15---15----13-12------|
      B ----15---15----15-------15-----15--15----15------13-15-|
      G -12-------------------------12-------------------------|
      D -------------------------------------------------------|
      A -------------------------------------------------------|
      E -------------------------------------------------------|

      Do this with Rhythm and Bass

      Repeat chorus

Outro: Same as Intro but Lead only
Tap to rate this tab
 
# A B C D E F G H I J K L M N O P Q R S T U V W X Y Z