Song name
# A B C D E F G H I J K L M N O P Q R S T U V W X Y Z

Misc Unsigned Bands - Brendan Han - Brave Little Boy tab

-------------------------------------------------------------------------------
			     Brave Little Boy
-------------------------------------------------------------------------------
Tabbed by:
Email:

Tuning:
intro/verse 
e|---------------------------------------------------------------------------|
B|---------------------------------------------------------------------------|
G|---------------------------------------------------------------------------|
D|-4-------------------------------------------------------------------------|
A|-5-0-5-5--------5-7-5------------------------------------------------------|
E|---2-7-3--------7-5-3-x2---------------------------------------------------|
chorus guitar 1
e|---------------------------------------------------------------------------|
B|---------------------------------------------------------------------------|
G|-7---------7---------------------------------------------------------------|
D|-7-9-7-5-4-7-9-7-5~--------------------------------------------------------|
A|-5-9-7-5-4-5-9-7-5~--------------------------------------------------------|
E|---7-5-3-2---7-5-3~--------------------------------------------------------|
guitar 2
e|---------------------------------------------------------------------------|
B|---------------------------------------------------------------------------|
G|-7/19\---------------------------------------------------------------------|
D|-x--x----------------------------------------------------------------------|
A|-5/17\---------------------------------------------------------------------|
E|---------------------------------------------------------------------------|
bridge guitar 1
e|---------------------------------------------------------------------------|
B|---------------------------------------------------------------------------|
G|-7---------7---------------------------------------------------------------|
D|-7-9-7-5---7-9-7-5~--------------------------------------------------------|
A|-5-9-7-5---5-9-7-5~--------------------------------------------------------|
E|---7-5-3-----7-5-3~--------------------------------------------------------|
guitar 2
e|---------------------------------------------------------------------------|
B|---------------------------------------------------------------------------|
G|-18-19-18-19-18-19----18-19-14---------------------------------------------|
D|--x--x--x--x--x--x-x3--x--x--x---------------------------------------------|
A|-16-17-16-17-16-17----16-17-12---------------------------------------------|
E|---------------------------------------------------------------------------|

e|---------------------------------------------------------------------------|
B|---------------------------------------------------------------------------|
G|-9/11--9/11-7-9/11--9/11-9--9/11/12-14-18-19-------------------------------|
D|-x-x---x-x--x-x-x---x-x--x--x-x---------------x2---------------------------|
A|-7/9---7/9--5-7/9---7/9--7--7/9-/10-12-16-17-------------------------------|
E|---------------------------------------------------------------------------|
Final chorus
e|---------------------------------------------------------------------------|
B|---------------------------------------------------------------------------|
G|-19--19----19----21------x4-19~--------------------------------------------|
D|-------19----19----19--19--------------------------------------------------|
A|---------------------------------------------------------------------------|
E|---------------------------------------------------------------------------|


************************************

| /   slide up
| \   slide down
| h   hammer-on
| p   pull-off
| ~   vibrato
| +   harmonic
| x   Mute note
| b   Bend
| pb  Pre-bend
| br  Bend release
| pbr Pre-bend release
| brb Bend release bend

************************************
Tap to rate this tab
 
# A B C D E F G H I J K L M N O P Q R S T U V W X Y Z