Misc Unsigned Bands - Darkchameleon - Spacial Inquisition tab

-----------------------------------------------------------------------------
                       Spacial Inquisition - DarkChameleon
-----------------------------------------------------------------------------
Tabbed by: Roastmasters
Email: tripiace@yahoo.com

Tuning: EADGBE


===============================
Intro  (sheet 3-2) (0:00-16:53)
===============================

Guitar 1 (Muted)
 Q   Q   Q   Q   Q   Q   Q   Q
|-----------------------------------|
|----------------4---2--5--2-4------|
|5---3--6--3-5---5---3--6--3-5------|
|-----------------------------------|
|-------------3-3-------------3--3--|
|-----------------------------------| x6

Guitar 2 (Muted) (comes in @ 5:51)
Same as above, with delay set so that each note is played as a 16th.

Guitar 3 (Unmuted)
It's the main riff without distortion, bass riff (5:51) The timing is a bit tricky.
 Q       Q       Q       Q       Q       Q       Q       Q
|------------------------------------------------------------------|
|------------------------------------------------------------------|
|------------------------------------------------------------------|
|------------------------------------------------------------------|
|------------------------8-7-7-------------------------------------|
|8-6-----6-8---9-8-------------9-8-6-----6-4-3-3-1-----------4-4-3-|

 Q       Q       Q       Q       Q       Q       Q       Q
|------------------------------------------------------------------|
|------------------------------------------------------------------|
|------------------------------------------------------------------|
|------------------------------------------------------------------|
|------------------------8-7-7--------------------------------8----|
|8-6-----6-8---9-8-------------9-6-6-----6-6-6-9---9-9-9-11--------|

=======================================
Bridge Thingy (Sheet 4-5) (16:54-22:25)
=======================================
Guitar 1 (Distortion on)
 Q       Q       Q       Q        Q       Q       Q       Q
|--------------------------------|-----------------------------------|
|--------------------------------|-----------------------------------|
|--------------------------------|-----------------------------------|
|--------------------------------|--------------3~~~~~~~~------------|
|3-1-x-xx1-3-4-3-----------------|3-1-----1-----3~~~~~~~~-6----8-----|
|----x-xx------------------------|----------4-3-1~~~~~~~~-4----6-----|

Guitar 2 (Bass)
Follow Guitar 1

===================================
Verse (Sheet 6,7,1,7) (22:26-44:15)
===================================
 Distortion on
 Q         Q         Q         Q
|-----------------------------------------|
|13---------------------------------------|
|12---------------------------------------|
|10-10--10--------10----------------------|
|-------10--------------------------------|
|-------8--8--8------8--8----8------------|

 Q         Q         Q         Q
|-----------------------------------------|
|-----------------------------------------|
|-----------------------------------------|
|----------10-----10----------------------|
|-----------------------------------------|
|8--8----8----8------8--8----8------------|


 Q              Q               Q         Q         Q
|------------------------------|--------------------------|
|------------------------------|--------------------------|
|------------------------------|--------------------------|
|10------8----------8----------|--------------------------|
|---------------10------8---10-|10---10---10--------------|
|-----8-----8------------------|8----8----8---------------|

 Q         Q         Q         Q
|-----------------------------------------|
|-----------------------------------------|
|-----------------------------------------|
|----------10-----10----------------------|
|-----------------------------------------|
|8--8----8----8------8--8----8------------|


 Q         Q         Q         Q
|-----------------------------------------|
|13---------------------------------------|
|12---------------------------------------|
|10-10--10--------10----------------------|
|-------10--------------------------------|
|-------8--8--8------8--8----8------------|

 Q              Q               Q         Q         Q
|------------------------------|--------------------------|
|------------------------------|--------------------------|
|------------------------------|--------------------------|
|10------8----------8----------|--------------------------|
|---------------10------8---10-|10---10---10--------------|
|-----8-----8------------------|8----8----8---------------|

 Q         Q         Q         Q
|-----------------------------------------|
|-----------------------------------------|
|-----------------------------------------|
|----------10-----10----------------------|
|-----------------------------------------|
|8--8----8----8------8--8----8------------|

 Q              Q               Q         Q         Q
|------------------------------|--------------------------|
|------------------------------|--------------------------|
|------------------------------|--------------------------|
|10------8----------8----------|--------------------------|
|---------------10------8---10-|10---10---10--------------|
|-----8-----8------------------|8----8----8---------------|

================================================
Bridge to Chorus (sheet 8,9,10)(0:44:16-1:17:24)
================================================
Guitar 1 w/distortion

 Q         Q         Q         Q
|-----------------------------------------|
|-----------------------------------------|
|-----------------------------------------|
|-----------------------------------------|
|-----------------------------------------|
|8-8-----8-8-8-----8-8-8-----8-8----------|x3

 Q         Q         Q         Q
|-----------------------------------------|
|-----------------------------------------|
|-----------------------------------------|
|1010----101010----101010----1010---------|
|1010----101010----101010----1010---------|
|8-8-----8-8-8-----8-8-8-----8-8----------| last measure, guitar cuts off here

Guitar 2 (Clean) 1:06:21-1:14:23
 Q          Q          Q         Q         Q         Q         Q
|-------------------------------------------------------------------------|
|-------------------------------------------------------------------------|
|-------------------------------------------------------------------------|
|-10--10---10------10---10--10---10-----10----10--10--10-----10----10-10--|
|-------------------------------------------------------------------------|
|8-------8----8--8-----8-------8----8--8----8-------8----8--8----8------8-|
Tap to rate this tab
 
# A B C D E F G H I J K L M N O P Q R S T U V W X Y Z