Misc Unsigned Bands - Anthony C - Love Is A Realitys Dream tab

This is my first ever guitar tab, and first ever song. For those of you who are new to 
guitar and want to play something really easy that may not be the most beautiful song 
ever heard, but it came from my heart to the girl I love so dearly, Alexis.

I hope you enjoy

For those who don't know, the strings are in ascending order. E being the lowest 
string on the guitar (lowest pitch)
e|---------------------------------------------------------------------------|
B|---------------------------------------------------------------------------|
G|-------------------------------------------------------0------------0------|
D|--2---2---2---2---0---0---2---2---4---4---6---6---4---4--4-----4---4--4----|
A|-3-3-3-3-3-3-3-3-2-2-2-2-3-3-3-3-5-5-5-5-7-5-7-5-5-5-5-----5--5-5-5-----5--|
E|5---5---3---3---3---3---5---5---7---7---5---5---3---3--------3---3---------|
END OF INTRO// NOW THE VERSE
e|---------------------------------------------------------------------------|
B|-----------------------------------0---0---0---0-----------0---0-----------|
G|---------------------------------------------------0---0-----------0---0---|
D|--0---0---0---0---0---0---0---0---5-5-5-5-4-4-4-0-2-2-2-2-4-4-4-4-5-5-5-5-4|
A|-5-5-4-4-5-5-5-0-5-5-4-4-5-5-5-5-7---7---5---5---3---3---5---5---7---7---5-|
E|7---5---3---3---7---5---3---3----------------------------------------------|

e|-------------------------------------|
B|-------------------------------------|
G|0---0---0---0--------0---0---0---0---|
D|-4-4-4-2-2-2--------4-4-4-4-5-5-5-5--|
A|--5---3---3---3/5--5---5---7---7-----|
E|-------------------------------------| 
REPEAT SAME PATTERN X2 THEN BACK TO THE INTRO! LET THE LAST NOTE RING BEFORE THIS NEXT PART

e|---------------------------------------------------------------------------|
B|---------------------------------------------------------------------------|
G|0--------------------------------------------------------------------------|
D|0--------------------------------------------------------------------------|
A|2--------------------------------------------------------------------------|
E|3--------------------------------------------------------------------------|

THANK YOU FOR PLAYING!!
Tap to rate this tab
 
# A B C D E F G H I J K L M N O P Q R S T U V W X Y Z