Misc Unsigned Bands - Pokemon - Route 1 tab

Lead Guitar
E|-------------------------------------------------------------------------|
B|---5-7-7-7---5-7-7-7---5-7-7-8-7-5------5-5-5-----5-5-5-----5-5-7-5-5-7-7|
G|-7---------7---------7--------------6-7-------6-7-------6-7------------7-|
D|-------------------------------------------------------------------------|
A|-------------------------------------------------------------------------|
E|-------------------------------------------------------------------------|


E|--------------------------------------------------------7-------------|
B|---5-7-7-7---5-7-7-7---5-7-7-8-7-5--------8-7-------------------------|
G|-7---------7---------7--------------6-7-9-----9-7-6---6---4h6p4---6-7-|
D|----------------------------------------------------9-----------7-----|
A|----------------------------------------------------------------------|
E|----------------------------------------------------------------------|

Harmony
E|-------------------------------------------------------------------------|
B|-------------------------------------------------------------------------|
G|-4-6-7-7-7-4-6-7-7-7-4-6-7-7-9-7-6---4-6-6-6---4-6-6-6---4-6-6-7-6-6-7--7|
D|-----------------------------------7---------7---------7---------------7-|
A|-------------------------------------------------------------------------|
E|-------------------------------------------------------------------------|

E|-----------------------------------------------------------------------|
B|-------------------------------------------------------8---------------|
G|-4-6-7-7-7-4-6-7-7-7-4-6-7-7-9-7-6-----6-9-7-6-----------7h9p7----9-11-|
D|-----------------------------------7-9---------9-7-6-7---------11------|
A|-----------------------------------------------------------------------|
E|-----------------------------------------------------------------------|

Rhythm Guitar

Acoustic				    Electric
E|-2--0--0--2--2--0--0-------|--------------------------------|
B|-3--2--2--3--3--2--2-------|--------------------------------|
G|-2--2--2--2--2--2--2-------|--------------------------------|
D|-0--2--2--0--0--2--2--6--7-|-----7---7-----------7--7-------|
A|----0--0--------0--0--7--7-|-5---7---7---5---5---7--7-----5-|
E|----------------------4--5-|-5---5---5---5---5---5--5--5--5-|
B|---------------------------|-3-----------3---3---------2--3-|


Part 2

Lead Guitar
E|----------------------------------------------|
B|-------------------15-14-12-14----------------|
G|-11-12-14-14-11----------------14-11----11----|
D|----------------12-------------------12----14-|
A|----------------------------------------------|
E|----------------------------------------------|

E|----------------------------------------12----|
B|-------------------15-14-12-------15-14----15-|
G|-11-12-14-14-11-14----------12-14-------------|
D|----------------------------------------------|
A|----------------------------------------------|
E|----------------------------------------------|

Harmony
E|--------------------------------------------|
B|-----------------12-10----10----------------|
G|----9-11-11------------12----11-------------|
D|-12---------12-9----------------12----12-11-|
A|-----------------------------------12-------|
E|--------------------------------------------|

E|--------------------------------------9----|
B|------------------12-10---------12-10---10-|
G|----9-11-11----11-------12-9-11------------|
D|-12---------12-----------------------------|
A|-------------------------------------------|
E|-------------------------------------------|

Rhythm Guitar

Acoustic				  Electric
E|-2--3--0-----2--3--0--2--|-------------------------|
B|-3--3--2-----3--3--2--3--|-------------------------|
G|-2--0--2--6--2--0--2--2--|-------------------------|
D|-0--0--2--7--0--0--2--0--|----5--7--------5--7-----|
A|----2--0--4-----2--0-----|-5--5--7-----5--5--7--5--|
E|----3-----------3--------|-5--3--5--5--5--3--5--5--|
B|-------------------------|-3--------2--3--------3--|
Tap to rate this tab
 
# A B C D E F G H I J K L M N O P Q R S T U V W X Y Z