Song name
# A B C D E F G H I J K L M N O P Q R S T U V W X Y Z

Misc Unsigned Bands - Autumns Paradox - Ctrlaltdel tab

Band: Autumn's Paradox
Guitarist: Mad Eye
Tabber Mad EY3

E|--------------------------------------|
B|--------------------------------------|
G|--------------------------------------|
D|---9--7--10--9--7h9--9--7--10--9--7h9-|
A|--------------------------------------|
D|-00-00-00--00-00---00-00-00--00-00----| x2
   ** ** **  ** **   ** ** **  ** **

E|--------------------------------------|
B|--------------------------------------|
G|---9--7--10--9--7h9--9--7--10--9--7h9-|
D|---9--7--10--9--7h9--9--7--10--9--7h9-|
A|--------------------------------------|
D|-00-00-00--00-00---00-00-00--00-00----| x2
   ** ** **  ** **   ** ** **  ** **

E|--------------------------------------|
B|--------------------------------------|
G|---5--3--6--5--3h5--5--3--6--5--3h5---|
D|---5--3--6--5--3h5--5--3--6--5--3h5---|
A|--------------------------------------|
D|-00-00-00-00-00---00-00-00-00-00------| x2
   ** ** **  ** **  ** ** ** ** **

E|--------------------------------------------|
B|--------------------------------------------|
G|--7h9--5h7--3h5-3h5--7h9--5h7--3h5-3h5~~~---|
D|--7h9--5h7--3h5-3h5--7h9--5h7--3h5-3h5~~~---|
A|--------------------------------------------|
D|00---00---00-------00---00---00-------------| 
  **   **   **       **   **   **

Tap to rate this tab
 
# A B C D E F G H I J K L M N O P Q R S T U V W X Y Z