Misc Unsigned Bands - Lekali - Lajalu Muskanle tab

its intro
E-2--3-3\5--3\2--2--3-3\5---2--3-3\5----------|
B-3--5-5\7--5\3--3--5-5\7---3--5-5\7----------|
G---------------------------------------------|
D---------------------------------------------|
A---------------------------------------------|
E---------------------------------------------|

E-3\2--2--3-3--2------------------------------|
B-5\3--3--5-5--3-----------------------------=|
G---------------------------------------------|
D---------------------------------------------|
A---------------------------------------------|
E---------------------------------------------|

paino converted into guitar;in D scale
E-2-------|---------------|-2\7-5-------------|
B-----3---|---------------|-------7-5---------|
G---2-----|---play 5 times|-----------7-------|
D--------0|---------------|-------------------|
A---------|---------------|-------------------|
E---------|---------------|-------------------|
First solo some thing like this
E-2\5-3-2---2--2\5-3-2---2--------------------|
B---------5------------5----------------------|
G---------------------------------------------|
D---------------------------------------------|
A---------------------------------------------|
E---------------------------------------------|

E-2\3-5-3-2-3---------------------------------|
B--------------7h8-7--------------------------|
G--------------------9-77-9\10--9-7-9---------|
D---------------------------------------------|
A---------------------------------------------|
E---------------------------------------------|

E--2\5-3-2---2--2\5-3-2---2-------------------|
B----------5------------5---------------------|
G---------------------------------------------|
D---------------------------------------------|
A---------------------------------------------|
E---------------------------------------------|

E--2\3-5-3-2-3--------------------------------|
B--------------7h8-7--------------------------|
G--------------------9-77-9\11-9-----7-99\10--|
D--------------------------------7-9----------|
A---------------------------------------------|
E---------------------------------------------|

E---------------------------------------------|
B-10h12-10-----------8-7----------------------|
G----------11-9-7--------9-7-6----------------|
D-----------------9------------9--------------|
A---------------------------------------------|
E---------------------------------------------|

E---------------------------------------------|
B---------------------------------------------|
G-----7-99\11-9-9-12-11-9-7h9-7--99-10-9------|
D-7-9-----------------------------------------|
A---------------------------------------------|
E---------------------------------------------|

E---------------------------------------------|
B-------------10h12-10-----------8-7----------|
G-----7-99\11----------11-9-7--------9-7-6----|
D-7-9--------------------------9------------9-|
A---------------------------------------------|
E---------------------------------------------|

E---------------------------------------------|
B---------------------------------------------|
G-----7-99\11-9-9-12-11-9-7h9-7-99-11-9-7-9---|
D-7-9-----------------------------------------|
A---------------------------------------------|
E---------------------------------------------|
(song starts here)

2nd solo;something like this
E-\7-9-9b-r9-7---14-10-12-10------------------|
B---------------------------12----------------|
G---------------------------------------------|
D---------------------------------------------|
A---------------------------------------------|
E---------------------------------------------|

E-\7-9-9\12-12br10--14-12-10-12--\7-9-9b------|
B---------------------------------------------|
G---------------------------------------------|
D---------------------------------------------|
A---------------------------------------------|
E---------------------------------------------|

E--r9-7--7-9-9\12-12br10---7-7-5----9-9-7-----|
B--------------------------------7-------9----|
G---------------------------------------------|
D---------------------------------------------|
A---------------------------------------------|
E---------------------------------------------|

E-14-12h14-12-10-12p10----10------------------|
B----------------------12---------------------|
G---------------------------------------------|
D---------------------------------------------|
A---------------------------------------------|
E---------------------------------------------|

3rd solo it some wot like this
E-5-2------------------------------------------|
B-----3-2-3-----------3-5-3-2-3--5-3-5-5-7-----|
G-----------------2-4--------------------------|
D-------------2-4------------------------------|
A----------------------------------------------|
E----------------------------------------------|

E----------------------------------------------|
B--5-7-8-7-8-8-12-10-8-7-5-3-------------------|
G----------------------------------------------|
D----------------------------------------------|
A----------------------------------------------|
E----------------------------------------------|

E-5-2------------------------------------------|
B-----3-2-3---------3-5-3-2-3--5-3-5-5-7-------|
G---------------2-4----------------------------|
D-----------2-4--------------------------------|
A----------------------------------------------|
E----------------------------------------------|

E----------------------------------------------|
B--5-7-8-7-8-8-12-10-8-7-5-3-------------------|
G----------------------------------------------|
D----------------------------------------------|
A----------------------------------------------|
E----------------------------------------------|

Tap to rate this tab
 
# A B C D E F G H I J K L M N O P Q R S T U V W X Y Z