Misc Unsigned Bands - Nineteenseventynine - Screenagers tab

This is my bands song 'screenagers' its a very simple song easy to learn so heres the
an improsvised solo so the tabed solo isent 100% correct but it fits and is close enough
th origanal. http://www.facebook.com/1979band?v=app_178091127385&ref=ts <<< SONG HERE 
FREE DOWNLOAD!!!!!!.Josh Easw guitars, Adam Dixon bass, Seb Hancock drums, tabed by seb hancock

INTRO
E|--------------------------|
B|--------------------------|
G|--------------------------|
D|-----8---/---11---/---6---| X2
A|-----9---/---12---/---7---|
E|--------------------------|

VURSE
E|--------------------------|
B|--------------------------|
G|--------------------------|
D|-----8---/---11---/---6---| X4
A|-----9---/---12---/---7---|
E|--------------------------|

CHORUS

E|--------------------------|
B|--------------------------|
G|--------------------------|
D|--4----2---6--------------| X4
A|--4----2---6--------------|
E|--2----0---4--------------|

VURSE 2
E|--------------------------|
B|--------------------------|
G|--------------------------|
D|-----8---/---11---/---6---| X4
A|-----9---/---12---/---7---|
E|--------------------------|

BRIDGE
E|--------------------------|
B|--------------------------|
G|--------------------------|
D|--4----2---6--------------| X4
A|--4----2---6--------------|
E|--2----0---4--------------|

SOLO GT1
E|--------------------------|
B|--------------------------|
G|--------------------------|
D|--4----2---6--------------| X4
A|--4----2---6--------------|
E|--2----0---4--------------|

GT 2
E|-------------------------------------------------------------------------|
B|---7~~~-7b------------7b-------------7-----777---999---/--17-17-17-15-15-|
G|---9b~~-----9--7--9--------9--7--9------9--------------------------------|
D|-------------------------------------------------------------------------|
A|-------------------------------------------------------------------------|
E|-------------------------------------------------------------------------|

E|-------------------------------------------------------------------------|
B|--15--17h---13-13-13---15b--13------------13-13--15-15--13-13--15-15-13--|
G|---------------------------------15-15-15--------------------------------|
D|-------------------------------------------------------------------------|
A|-------------------------------------------------------------------------|
E|-------------------------------------------------------------------------|

E|--13-13-13-13--15-15-15---171717171711717/15151515151515/1313131313------|
B|-------------------------------------------------------------------------|
G|-------------------------------------------------------------------------|
D|-------------------------------------------------------------------------|
A|-------------------------------------------------------------------------|
E|-------------------------------------------------------------------------|

E|--12-----------------------12--------------------------------12~~~~~~~---|
B|------14---12--14--12--14-------14--12---14b-12-12-12-12-12--------------|
G|-------------------------------------------------------------------------|
D|-------------------------------------------------------------------------|
A|-------------------------------------------------------------------------|
E|-------------------------------------------------------------------------|

CHORUS/OUTROS
E|--------------------------|
B|--------------------------|
G|--------------------------|
D|--4----2---6--------------| X3
A|--4----2---6--------------|
E|--2----0---4--------------|
Tap to rate this tab
 
# A B C D E F G H I J K L M N O P Q R S T U V W X Y Z