Misc Unsigned Bands - Feromona - Psicologia tab

Hello!!

Guess what?? Feromona :D

This is just the solo tab, mostly of the music is just the bass, like this

G|--------------------------------|
D|-------7---5----------7---5-----|
A|--------------------------------|   and repeats
E|--5------------3-5------------3-|

and then

G|-----------------------------|
D|-----------------------------|
A|-----------------------------|
E|--1-1---1-1-2-2---3---5------|

and then

G|--------------------------------|
D|-------7---5----------7---5-----|
A|--------------------------------|
E|--5------------3-5------------3-|

etc..

So, the guitar solo goes like this


e|-------------------------------------------------------------------|
B|-------------------------------------------------------------------|
G|------------------------------------------------------5--5--6-6-5--|
D|--7----7--7-7-5-7-8-7----7--7-7-5-7-8-7---8-7---8-7-8--------------|
A|-------------------------------------------------------------------|
E|-------------------------------------------------------------------|

e|-------------------------------------------------------------------|
B|--6----6--6-6-6-6-7----7--7-7-7-7-5----5--5-5-5-5-5--5-5-5-5-5-5-5-|
G|-------------------------------------------------------------------|
D|-------------------------------------------------------------------|
A|-------------------------------------------------------------------|
E|-------------------------------------------------------------------|

e|-------------------------------------------------------------------|
B|-------------------------------------------------------------------|
G|------------------------------------------------------5--5--6-6-5--|
D|--7----7--7-7-5-7-8-7----7--7-7-5-7-8-7---8-7---8-7-8--------------|
A|-------------------------------------------------------------------|
E|-------------------------------------------------------------------|

e|-------------------------------------------------------------------|
B|--6----6--6-6-6-6-7----7--7-7-7-7-5----5--5-5-5-5-5--5-5-5-5-5-5-5-|
G|-------------------------------------------------------------------|
D|-------------------------------------------------------------------|
A|-------------------------------------------------------------------|
E|-------------------------------------------------------------------|

if you want more contact moi je
Tap to rate this tab
 
# A B C D E F G H I J K L M N O P Q R S T U V W X Y Z