Misc Unsigned Bands - Gio - Getar Hati tab

My first tab, anything just email me at hafidzhariri@gmail.com

intro
E--3333-x-3333-x-3333-x-3333-x-33333--|
B--5555-x-5555-x-5555-x-5555-x-33333--|
G--4444-x-5555-x-4444-x-5555-x-44444--|
D--5555-x-5555-x-5555-x-5555-x-55555--|
A--3333-x-3333-x-3333-x-3333-x-55555--|
E--3333-x-3333-x-3333-x-3333-x-33333--|

verse
E--3-x-3-x-3-x-333-3333-|
B--5-x-5-x-5-x-333-3333-|
G--4-x-4-x-4-x-444-4444-|
D--5-x-5-x-5-x-555-5555-|
A--3-x-3-x-3-x-333-5555-|
E--3-x-3-x-3-x-333-3333-|
Saat pertma aku mengenal dirimu, berdetar jiwa ragaku kau mempersoraku..

riff
E--00000--0---------0-------10-|
B--55555--0---------5-------10-|
G--55555--9---------5-------11-|
D--55555--10---3x---5-------12-|
A--xxxxx--10--------x-------12-|
E--55555--8---------5-------10-|
tanpamu aku lemah, kau beri kn ku cahaya
terangi gelap hidupku, kululuh padamu

chorus
E--33333333--33333333--55555555--55555-|
B--33333333--55555555--55555555--77777-|
G--44444444--55555555--55555555--77777-|
D--55555555--55555555--77777777--77777-|
A--55555555--33333333--77777777--55555-|
E--33333333--33333333--55555555--55555-|
Dengar hatiku kan ku bisikan cintaku,
Lihat juwaku kan kau dapatkan setia...ku
Ingat diriku kau kan rasakan rinduku
untuk dirimu kan ku berikan hidupku..woo
Tap to rate this tab
 
# A B C D E F G H I J K L M N O P Q R S T U V W X Y Z