Song name
# A B C D E F G H I J K L M N O P Q R S T U V W X Y Z

Misc Unsigned Bands - Hollyoaks Theme - Easy tab

E||---------------------||---------------------------||-------------------||
B||---------------------||---------------------------||-------------------||
G||---------------------||---------------------------||-------------------||
D||-----2---------------||---------------------------||-------------------||
A||--4-----4---2--------||-----1---2---4---6----9----||------1--2--0------||
E||----------------5--2-||--2------------------------||--2------------2---||


E||-------------------------------||------------------------||
B||-------------------------------||------------------------||
G||-------------------------------||------------------------||
D||-------------------------------||------------------------||
A||--------1---2---4---6----9-----||--------1----2---0------||
E||----2--------------------------||----2---------------2---||



Hold E chord for next two bars

E||---------0-----0----------||----------0----0----------||
B||---------0--------0-------||----------0-------0-------||
G||---------1------------1---||----------1----------1----||
D||---------2----------------||----------2---------------||
A||-----2--------------------||------2-------------------||
E||--0-----------------------||--0-----------------------||



E||-------------------------||----------------------------------------||
B||-------------------------||-----3----------------------------------||
G||-------------------------||--4-----2--0---------------2------------||
D||-------------------------||--------------2--0------4----2-0--------||
A||--5--4--2-----5--4--2----||----------------------------------2--0--||
E||-------------------------||----------------------------------------||



E||-------------------------------||------------------------||
B||-------------------------------||------------------------||
G||-------------------------------||------------------------||
D||-------------------------------||------------------------||
A||--------1---2---4---6----9-----||--------1----2---0------||
E||----2--------------------------||----2---------------2---||



E||------------------------------0-----||
B||--------3---------------------0-----||
G||----4-------2---0-------------1-----||
D||--------------------2---0-----2-----||
A||------------------------------2-----||
E||------------------------------0-----||
Tap to rate this tab
 
# A B C D E F G H I J K L M N O P Q R S T U V W X Y Z