Song name
# A B C D E F G H I J K L M N O P Q R S T U V W X Y Z

Misc Unsigned Bands - By Its Right Name - The Replay tab

-------------------------------------------------------------------------------
			     By Its Right Name - The Replay
-------------------------------------------------------------------------------

Tuning:half-step down

capo 4

Intro 1/2

e|---------------------------------------------------------------------------|
B|---------------------------------------------------------------------------|
G|--4-4-4--9-9-9--2-2-2--2-2-2-----------------------------------------------|
D|--2-2-2--9-9-9--4-4-4------------------------------------------------------|
A|---------------------------------------------------------------------------|
E|---------------------------------------------------------------------------|

e|---------------------------------------------------------------------------|
B|---------------------------------------------------------------------------|
G|--4-4-4--9-9-9--2-2-2--2---------------------------------------------------|
D|--2-2-2--9-9-9--4-4-4------------------------------------------------------|
A|---------------------------------------------------------------------------|
E|---------------------------------------------------------------------------|

Intro 2/2

e|----------------------8-7------------------------8-7-----------------------|
B|--0-5-8-10-8-7--0-5-8-----8--0-5-8-10-8-7--0-5-8-----8-5b------------------|
G|---------------------------------------------------------------------------|
D|---------------------------------------------------------------------------|
A|---------------------------------------------------------------------------|
E|---------------------------------------------------------------------------|

Verses

e|---------------------------------------------------------------------------|
B|------0---------------------0----------------------------------------------|
G|----------0------2--------------0---9-9-9--2-2-2--4------------------------|
D|--0h2---2----2h4---0-2--0h2---2-----9-9-9--4-4-4--2------------------------|
A|---------------------------------------------------------------------------|
E|---------------------------------------------------------------------------|

Choruses are chords

Instrumental before verse 2 is same as intro


************************************

| /   slide up
| \   slide down
| h   hammer-on
| p   pull-off
| ~   vibrato
| +   harmonic
| x   Mute note
| b   Bend
| pb  Pre-bend
| br  Bend release
| pbr Pre-bend release
| brb Bend release bend

************************************
Tap to rate this tab
 
# A B C D E F G H I J K L M N O P Q R S T U V W X Y Z