Misc Unsigned Bands - Larry Williams - Boney Moroney tab

Boney Moreny:Larry Williams.
#14 in 1954.

RIFF#1.
------------------------4-4------------------|
-------------4------6--------6-6---4-5-------|
---------------5-----------------------------|
----------------6----------------------------|
---------------------------------------------|
---------------------------------------------|

RIFF#2.
--------------4--6--9-9--6-6-4----------------|
----------6--------------------6--------------|
----------6-----------------------------------|
----------------------------------------------|
----------------------------------------------|
----------------------------------------------|


#1.
G#                                RIFF#1.
I got a girl named Boney Maronie.
                                       RIFF#1.
She's as skinny as a stick of macaroni.
         C#                                           RIFF#2.
Ought to see her rock and roll with her blue jeans on.
      G#                                RIFF#1.
She's not very fat, just skin and bones.

CHORUS:
D#             C#
I love her and she loves me.
D#                 C#
Oh, how happy now, we can be..
       G#                             RIFF#1.
making love underneath the apple tree.

#2.
G#                                      R#1.
Well, I told her Mama and her Papa. too.
                              R#1.
Just exactly what I wanna do.
  C#                                   R#2.
I wanna get married on a night in June.
             G#                                   R#1.
And rock and roll by the light of the silvery moon.

CHORUS:
D#             C#
I love her and she loves me.
D#                 C#
Oh, how happy now, we can be..
       G#                             R#1.
making love underneath the apple tree.


(INTERLUDE:SAX:)

#3.
G#                                             R#1.
She's my one and only, she's my heart's desire.
                                               R#1.
She's a real upsetter, she's a real live wire.
C#                                    R#2.
Everyone turns when my baby walks by.
      G#                                       R#1.
She's something to see, really catches the eye.

CHORUS:
D#             C#
I love her and she loves me.
D#                 C#
Oh, how happy now, we can be..
       G#                             R#1.
making love underneath the apple tree.

OUTRO:(Whistling the melody.)R#1(x2) R#2(x1) R#1(x1) (Fade.)


A fifties smash from Kraziekhat.
Tap to rate this tab
 
# A B C D E F G H I J K L M N O P Q R S T U V W X Y Z