Misc Unsigned Bands - The Succesfull Failure - Dont Say tab

Intro(x2)/Chorus(x2)/Verse  (x3)
----------------------------------------------------------------------------|
----------------------------------------------------------------------------|
----------------------------------------------------------------------------|
-2-2-2-2-2-2-2-2---5-5-5-5-5-5-5---5-5-5-5-5-5-5---3-3-3-3-3-3-3------------|
-0-0-0-0-0-0-0-0---3-3-3-3-3-3-3---5-5-5-5-5-5-5---3-3-3-3-3-3-3------------|
-0-0-0-0-0-0-0-0---3-3-3-3-3-3-3---3-3-3-3-3-3-3---1-1-1-1-1-1-1------------|


--------------------| Do this after all three I, C, & V
--------------------|
--------------------|
-2-2-2-2-2-2-2------|
-2-2-2-2-2-2-2------|
-0-0-0-0-0-0-0------|
Tap to rate this tab
 
# A B C D E F G H I J K L M N O P Q R S T U V W X Y Z