Song name
# A B C D E F G H I J K L M N O P Q R S T U V W X Y Z

Misc Unsigned Bands - Slack Pile - Street Lady tab

Street Lady by Slack Pile

Main-Riff (Gid2)

------------------------------------------------|
------------------------------------------------|
--------8--------10-8------------8-------8-10---|
-10--10-8-10--10-10-8-10--10-10--8-10-10-8-10---|
-10--10-8-10--10--8-8-10--10-10--8-10-10-8--8---|
--8---8----8---8-------8---8--8-----8--8--------|

Verse (Part1)

 C C       F F F C C  A A#A#      F F F C C
-0-0-------1-1-1-0-0--------------1-1-1-0-0-----|
-1-1-x-x-x-1-1-1-1-1--------------1-1-1-1-1-x---|
-0-0-x-x-x-2-2-2-0-0--------x-x-x-2-2-2-0-0-x---|
-2-2-x-x-x-3-3-3-2-2----3-3-x-x-x-3-3-3-2-2-x---|
-3-3-x-x-x-3-3-3-3-3--0-1-1-x-x-x-3-3-3-3-3-x---|
------------------------------------------------|

Verse (Part2)

  C                                       A#             F
----------------------------------------------------------------------------|
----------------------------------------------------------------------------|
----------------------------------------------------------------------------|
--------------------------------------------------------10-10-12-10-10-12---|
-10-10-12-10-10-13-12-10-13-13-12-10--10--8-8-10-8-8-10--8--8--8--8--8--8---|
--8--8--8--8--8--8--8--8--8--8--8--8---8--6-6--6-6-6--6---------------------|

Chorus (Gid 2)

 C-C-F-C-F-C-C-F-C-F-C  A# ?  C C F C F C F C
-----------------------------------------------|
-----------------------------------------------|
-----------------------------------------------|
-2-2-3-2-3-2-2-3-2-3-2--3--3--2-2-3-2-3-2-3-2--|
-3-3-3-3-3-3-3-3-3-3-3--1--0--3-3-3-3-3-3-3-3--|
-----------------------------------------------|

Bridge

A#  -  F  - C
Tap to rate this tab
 
# A B C D E F G H I J K L M N O P Q R S T U V W X Y Z