Song name
# A B C D E F G H I J K L M N O P Q R S T U V W X Y Z

Misc Unsigned Bands - Supergonzo - Shuffle Hiroshima tab

-------------------------------------------------------------------------------
    Shuffle Hiroshima - Supergonzo
-------------------------------------------------------------------------------
Tabbed by: Otta
Email: simott@lycos.com

Tuning:
   Intro:    Riff 1      x4     Brigde x4 (listen to the song for rhythm)
e|----15--|--15-------|------|------15----18---------------------------|
B|----0---|---0-------|------|-------0-----0---------------------------|
G|----13--|--13-------|------|------13----16---------------------------|
D|----12--|--12-------|--4---|------12----15---------------------------|
A|--------|--------5--|--x---|-----------------------------------------|
E|--------|--------3--|--3---|-----------------------------------------|

   Outro:
e|----3--0--3--4--3--0--3--4--3--0--3--4--3--3-------------------------|
B|----5--5--5--5--5--5--5--5--5--5--5--5--5--5-------------------------|
G|----5--5--5--5--5--5--5--5--5--5--5--5--5--5-------------------------|
D|---------------------------------------------------------------------|
A|---------------------------------------------------------------------|
E|---------------------------------------------------------------------|


************************************

| /   slide up
| \   slide down
| h   hammer-on
| p   pull-off
| ~   vibrato
| +   harmonic
| x   Mute note
| b   Bend
| pb  Pre-bend
| br  Bend release
| pbr Pre-bend release
| brb Bend release bend

************************************
Tap to rate this tab
 
# A B C D E F G H I J K L M N O P Q R S T U V W X Y Z