Misc Unsigned Bands - Slack Pile - Dirt Track tab

Dirt Track by SLACK PILE

Main-Riff

e-------------------------------------|
h-------------------------------------|
g-------------------------------------|
D--------x-x-x--5-x-7-x--------7------|
A--7-7/--x-x-x--3-x-5-x----5-5-5------|
E--5-5/--x-x-x----x---x0--3-3--------|

Pre-Chorus/Chorus

----------------------------------------------------|
----------------------------------------------------|
----------------------------------------------------|
--------------------7-7-7-7-7-7-7--x-x--------------|
-5-5-5-5-5-5-5-5-x--5-5-5-5-5-5-5--x-x--------------|
-3-3-3-3-3-3-3-3-x--------------------x-x-12/-------|

--------------------------|--------------------------|
--------------------------|--------------------------|
-2--2---------------------|-2--2---------------------|
-2--2---------------------|-2--2---------------------|
-0--0-----5--5-x---5-7----|-0--0------5--5-x---3^4-7-|
------3^0-3--3-x-0-3-5----|-------3^0-3--3-x-0-----5-|


SOLO (Guit2)
                               P.M.    P.M.          P.M.
--------------------------|-----------------------------------------|
--------------------------|-----------------------------------------|
--------Main Riff---------|-----------------------------------------|
--------------------------|-2---------------------------------------|
--------------------------|-2------4b-------------5/4----5/6--6/7---|
--------------------------|-0--0-0-2b--0-0-(x)----3/20--3/4--4/5---|

Bridge (Guit2)

 A    G   D/F#  G
------3----2----3--|
------3----3----3--|
-2----0----2----0--|
-2----0----0----0--|
-0----2----0----2--|
------3----2----3--|


Final Chorus-Chords

A  G  F  G
Tap to rate this tab
 
# A B C D E F G H I J K L M N O P Q R S T U V W X Y Z