Song name
# A B C D E F G H I J K L M N O P Q R S T U V W X Y Z

Misc Unsigned Bands - Harald Henriksson Redan Borta - Redan Borta chords

Highlighted       Show chord diagrams
"Redan Borta" by Harald Henriksson

Standard tuning

This is my first song and tab!


Intro/Interlude 1
E|--3------------3-----------3------------3---------|
B|--4------------5-----------4------------5---------|
G|--5------------5-----------5------------5---------|
D|--3------------3-----------3------------3---------|
A|--*------------*-----------*------------*---------|
E|--*------------*-----------*------------*---------|

Intro/Interlude 2
E|--4------------4-----------4------------4---------|
B|--5------------6-----------5------------6---------|
G|--6------------6-----------6------------6---------|
D|--4------------4-----------4------------4---------|
A|--*------------*-----------*------------*---------|
E|--*------------*-----------*------------*---------|

Intro:

Jag simmar, simmar i det grumliga vatten som slukar min kropp
Manen bildar en rand pa ytan som for tag sen gav ett hopp

(Interlude 1)
G   C                  Em  C    G
Jag sjunker ned i det djupa
G       C        D      C    G
Nast inpa bottenlosa vatten
G   C       Em  D  G
Och ser hur ytan
G    D     C     G
Blir klar ovanfor

(Interlude 1 x 2)

Luften sinar ur lungorna
En hand som drar livet ur kroppen
Vad hande egentligen?
Minnena ar svaga
G        C         Em D  G
For ett tag glomde jag
G          C           D     C      G
Varfor jag vada i det ljumma vattnet
G    C              Em  D   G
Med vatten upp till midjan
G      C            D      C      G
Skrek jag och slog hart i vattnet
G    C       D           Em
Ett blodande sar i mitt hjarta

(Interlude 1)

Nu ar det forsent
Med bestamd min och spanda lappar tydde jag orden
"Du finns inte"
G  C        Em  D  G
Efter denna fras
G        C        D      C    G
Har jag krupit in i mitt inre
G       C            Em  D    G
Skyddad av mitt enda forsvar
G     D     C
Forsvinnande

G          C          D  C   G
Genom att inte traffa andra
G        C        D       Em
kan jag inte visa min svaghet

(Interlude 2)

(#)

En vilsen sjal som forlagt meningen med livet
Med inget annat val an att fortsatta
G    C      Em   D   G
Din vackra silhuett
G       C            D             C   D
Som sa manga ganger statt vid min sida
G  C           Em D  G
Ar nu sa langt bort
G        C       D           G
Jag far inte en skymt av den


G    C      D  C  G
Farval, farval
G      C           Em        D   G
Till vaxterna som prytt var jord
G    C       D           C        G
Farval till dig som jag alskat sa
G    D         C
Farval till mig
Tap to rate this tab
 
# A B C D E F G H I J K L M N O P Q R S T U V W X Y Z