Misc Unsigned Bands - Darius Heath - Paper Cuts And Crows Coughing Blood tab

Artist - Darius Heath
Song - Paper Cuts And Crows Coughing Blood
Album - Nightmare (Un-released)
Year - 2010

CRITERIA;
1. Drop C Tuning (CGCFAD)
2. The genre is Death Metal.
3.
_______________________________________________________________________

Introduction [X4];

Guitar One:              Guitar Two:
D----------------------| D------------------------|
A----------------------| A------------------------|
F----------------------| F------------------------|
C-0--------------------| C-0---0---2--------------|
F-0---5---7------------| F-0----------------------|
C-0--------------------| C-0----------------------|

Verse One [X4];

Guitar One:              Guitar Two:
D----------------------| D------------------------|
A----------------------| A------------------------|
F----------------------| F------------------------|
C---------------------0| C-----0---2-------------3|
F-----5---7-----------0| F-----------------------3|
C-000---0---0-0-0-0-0-0| C-000---0---0-0-0-0-0-0-3|
  ...   .   . . . . .      ...   .   . . . . . .

Guitar One:              Guitar Two:
D----------------------| D------------------------|
A----------------------| A------------------------|
F----------------------| F------------------------|
C---------------------0| C-----3-0-2-------------3|
F-----8-5-7-----------0| F-----------------------3|
C-000-------0-0-0-0-0-0| C-000-------0-0-0-0-0-0-3|
  ...       . . . . .      ...       . . . . . .

Chorus [X2];

Guitar One And Two:             
D---------------------------------|
A---------------------------------|
F---------------------------------|
C-5-5-5-5-5-5-5-5-7-7-7-7-7-7-7-7-|
F-3-3-3-3-3-3-3-3-5-5-5-5-5-5-5-5-|
C-3-3-3-3-3-3-3-3-5-5-5-5-5-5-5-5-

D---------------------------------|
A---------------------------------|
F---------------------------------|
C-9-9-9-9-9-9-9-9-1010101010101010|
F-7-7-7-7-7-7-7-7-7-7-7-7-7-7-7-7-|
C-7-7-7-7-7-7-7-7-7-7-7-7-7-7-7-7-|

Verse Two [X4];

Guitar One:              Guitar Two:
D----------------------| D------------------------|
A----------------------| A------------------------|
F----------------------| F------------------------|
C---------------------0| C-----0---2-------------3|
F-----5---7-----------0| F-----------------------3|
C-000---0---0-0-0-0-0-0| C-000---0---0-0-0-0-0-0-3|
  ...   .   . . . . .      ...   .   . . . . . .

Guitar One:              Guitar Two:
D----------------------| D------------------------|
A----------------------| A------------------------|
F----------------------| F------------------------|
C---------------------0| C-----3-0-2-------------3|
F-----8-5-7-----------0| F-----------------------3|
C-000-------0-0-0-0-0-0| C-000-------0-0-0-0-0-0-3|
  ...       . . . . .      ...      . . . . . .

Chorus [X2];

Guitar One And Two:             
D---------------------------------|
A---------------------------------|
F---------------------------------|
C-5-5-5-5-5-5-5-5-7-7-7-7-7-7-7-7-|
F-3-3-3-3-3-3-3-3-5-5-5-5-5-5-5-5-|
C-3-3-3-3-3-3-3-3-5-5-5-5-5-5-5-5-

D---------------------------------|
A---------------------------------|
F---------------------------------|
C-9-9-9-9-9-9-9-9-1010101010101010|
F-7-7-7-7-7-7-7-7-7-7-7-7-7-7-7-7-|
C-7-7-7-7-7-7-7-7-7-7-7-7-7-7-7-7-|

Break [X4];

Guitar One:             
D--------------------------------------------------|
A--------------------------------------------------|
F--------------------------------------------------|
C---5--5--5--5--5--5--5--5--7--7--7--7--7--7--7--7-|
F--3--3--3--3--3--3--3--3--5--5--5--5--5--5--5--5--|
C-3--3--3--3--3--3--3--3--5--5--5--5--5--5--5--5---|
  .. .. .. .. .. .. .. .. .. .. .. .. .. .. .. ..

Guitar Two:
D--------------------------------------------------|
A--------------------------------------------------|
F--------------------------------------------------|
C---8--8--8--8--8--8--8-8--10-10-10-10-10-10-10-10-|
F--6--6--6--6--6--6--6--6--8--8--8--8--8--8--8--8--|
C-6--6--6--6--6--6--6--6--8--8--8--8--8--8--8--8---|
  .. .. .. .. .. .. .. .. .. .. .. .. .. .. .. ..

Guitar One:             
D--------------------------------------------------|
A--------------------------------------------------|
F--------------------------------------------------|
C---9--9--9--9--9--9--9--9--10-10-10-10-10-10-10-10|
F--7--7--7--7--7--7--7--7--7--7--7--7--7--7--7--7--|
C-7--7--7--7--7--7--7--7--7--7--7--7--7--7--7--7---|
  .. .. .. .. .. .. .. .. .. .. .. .. .. .. .. ..

Guitar Two:
D--------------------------------------------------|
A--------------------------------------------------|
F--------------------------------------------------|
C---12-12-12-12-12-12-12-12-13-13-13-13-13-13-13-13|
F--10-10-10-10-10-10-10-10-10-10-10-10-10-10-10-10-|
C-10-10-10-10-10-10-10-10-10-10-10-10-10-10-10-10--|
  .. .. .. .. .. .. .. .. .. .. .. .. .. .. .. ..

Chorus [X4];

Guitar One And Two:             
D---------------------------------|
A---------------------------------|
F---------------------------------|
C-5-5-5-5-5-5-5-5-7-7-7-7-7-7-7-7-|
F-3-3-3-3-3-3-3-3-5-5-5-5-5-5-5-5-|
C-3-3-3-3-3-3-3-3-5-5-5-5-5-5-5-5-

D---------------------------------|
A---------------------------------|
F---------------------------------|
C-9-9-9-9-9-9-9-9-1010101010101010|
F-7-7-7-7-7-7-7-7-7-7-7-7-7-7-7-7-|
C-7-7-7-7-7-7-7-7-7-7-7-7-7-7-7-7-|

Break [X9];
Guitar One:             
D--------------------------------------------------|
A--------------------------------------------------|
F--------------------------------------------------|
C---5--5--5--5--5--5--5--5--7--7--7--7--7--7--7--7-|
F--3--3--3--3--3--3--3--3--5--5--5--5--5--5--5--5--|
C-3--3--3--3--3--3--3--3--5--5--5--5--5--5--5--5---|
  .. .. .. .. .. .. .. .. .. .. .. .. .. .. .. ..

Guitar Two:
D--------------------------------------------------|
A--------------------------------------------------|
F--------------------------------------------------|
C---8--8--8--8--8--8--8-8--10-10-10-10-10-10-10-10-|
F--6--6--6--6--6--6--6--6--8--8--8--8--8--8--8--8--|
C-6--6--6--6--6--6--6--6--8--8--8--8--8--8--8--8---|
  .. .. .. .. .. .. .. .. .. .. .. .. .. .. .. ..

Guitar One:             
D--------------------------------------------------|
A--------------------------------------------------|
F--------------------------------------------------|
C---9--9--9--9--9--9--9--9--10-10-10-10-10-10-10-10|
F--7--7--7--7--7--7--7--7--7--7--7--7--7--7--7--7--|
C-7--7--7--7--7--7--7--7--7--7--7--7--7--7--7--7---|
  .. .. .. .. .. .. .. .. .. .. .. .. .. .. .. ..

Guitar Two:
D--------------------------------------------------|
A--------------------------------------------------|
F--------------------------------------------------|
C---12-12-12-12-12-12-12-12-13-13-13-13-13-13-13-13|
F--10-10-10-10-10-10-10-10-10-10-10-10-10-10-10-10-|
C-10-10-10-10-10-10-10-10-10-10-10-10-10-10-10-10--|
  .. .. .. .. .. .. .. .. .. .. .. .. .. .. .. ..

Verse One;
You open up my chest,
Entering my atmosphere,
You lunge the razor deep,
I bleed out in your tears;
I don't need your sympathy,
You just drive me away,
Fuck everything about you,
'Cause I'm here to stay;

Chorus;
Walking through their thoughts and morals,
Raining down this burning flood,
You give me paper cuts,
And crows are coughing blood;
When you break in,
I cry my tears,
You loathe the fact that,
I know all of your fears;

Verse Two;
Tightening up my grip,
On your breaking hip,
Lacerate the sky,
This is no pleasure trip;
Once more, you break me down,
Fuck me over and let me drown,
Tear me down, thrown me out,
And share it all around;

Chorus;
Walking through their thoughts and morals,
Raining down this burning flood,
You give me paper cuts,
And crows are coughing blood;
When you break in,
I cry my tears,
You loathe the fact that,
I know all of your fears;
Tap to rate this tab
 
# A B C D E F G H I J K L M N O P Q R S T U V W X Y Z