Song name
# A B C D E F G H I J K L M N O P Q R S T U V W X Y Z

Misc Unsigned Bands - Darius Heath - Rain tab

Artist - Darius Heath
Song - Rain
Album - Nightmare (Un-released)
Genre - Grunge


Introduction [X3]:
e-------------------------------------|
B-------------------------------------|
G-------------------------------------|
D-----------------------------------5-|
A---5-5-5-5-5-5-5-5-5-5-5-5-5-5-5-5---|
E--6-6-6-6-6-6-6-6-2-2-2-2-2-2-2-2-2--|

Verse One [X8]:
e------------------------------------|
B------------------------------------|
G------------------------------------|
D------------------------------------|
A--5-5-5-5-5-5-5-5-3-3-3-3-3-3-3-3-3-|
E--6-6-6-6-6-6-6-6-5-5-5-5-5-5-5-5-5-|

Chorus [X5]:
e------------------------------------|
B------------------------------------|
G------------------------------------|
D--55555555555555553333333322332233--|
A--55555555555555553333333322332233--|
E--66666666666666665555555544554455--|

Verse Two [X8]:
e------------------------------------|
B------------------------------------|
G------------------------------------|
D----------------5-----------------3-|
A--5-5-5-5-5-5-5-5-3-3-3-3-3-3-3-3-3-|
E--6-6-6-6-6-6-6-6-5-5-5-5-5-5-5-5-5-|

Chorus [X5]:
e------------------------------------|
B------------------------------------|
G------------------------------------|
D--55555555555555553333333322332233--|
A--55555555555555553333333322332233--|
E--66666666666666665555555544554455--|

Outro [X4]:
e------------------------------------|
B------------------------------------|
G------------------------------------|
D----5-----5--5---55555-5------5-----|
A---5---5-5--5---555555--5--5-5-5-3--|
E--6--66-6--6---6-66666---66-6---6-5-|

Tap to rate this tab
 
# A B C D E F G H I J K L M N O P Q R S T U V W X Y Z