Song name
# A B C D E F G H I J K L M N O P Q R S T U V W X Y Z

Misc Unsigned Bands - Bad Judgment - Ever Forward tab

Ever Forward
Bad Judgment

||=repeat
/ =slide up to note

Verse:
G||------------------------------------------------------------------------||
D||---------7----------------------7--------5----------------5-------------||
A||-----7--------7--5-----------7-------/7------5--------3-5-----5------/5-||
E||-5------------------8--7--5------------------------3--------------3-----||

|-------------------------------------------|
|-3-------3------3--3---2--------2-----2--2-|
|-------------------------------------------|
|-----1-------1-------------0-------0-------|



Chorus
                                      x3
||----------------------------------||----------------------|
||----------------------------------||----------------------|
||----------------------------------||------------------/5--|
||-5---5---0---0---1---1----3---3---||--1---1---0---0-------|

repeat verse then play alternate verse:

Alternate Verse:
||------------------------------------------------------------------------||
||---------7----------------------7--------5----------------5-------------||
||-----7--------7--5-----------7-------/7------5--------3-5-----5------/5-||
||-5------------------8--7--5------------------------3--------------3-----||

||---------------------------------||---------------------------------||
||-------------------------7-7-7-7-||-------------------------5-5-5-5-||
||-----------------------7---------||-----------------------5---------||
||-5-5-5-5-5-5-5-5-5-5-5-----------||-3-3-3-3-3-3-3-3-3-3-3-----------||

||---------------------------------||---------------------------------|
||-------------------------7-7-7-7-||-------------------------5-5-5-5-|
||-----------------------7---------||-----------------------5---------|
||-5-5-5-5-5-5-5-5-5-5-5-----------||-3-3-3-3-3-3-3-3-3-3-3-----------|


|---------------------------------|---------------------------------|
|-------------------------2-2-2-2-|-------------------------3-3-3-3-|
|-----------------------2---------|-----------------------3---------|
|-0-0-0-0-0-0-0-0-0-0-0-----------|-1-1-1-1-1-1-1-1-1-1-1-----------|

|---------------------------------|
|-------------------------2-2-2-2-|
|-----------------------2---------|
|-0-0-0-0-0-0-0-0-0-0-0-----------|

Play Chorus, then the Bridge

Bridge 
don't play until second time this progression is played, when the second guitar comes in.

|------------------------------------------------|
|------------------------------------------------|
|------------------------------------------------|
|-5--5--5-5--7--7--7-7-8--8--8-8--10--10--10-10--|

||-----------------------------------------------------||
||-----------------------------------------------------||
||-----------------------------------------------------||
||-5--5--5--5--7--7--7--7--8--8--8--8--10--10--10--10--||

                                      x3
||------------------------------------||------------------------|
||------------------------------------||------------------------|
||------------------------------------||--------------------/5--|
||-5-5-5-5--0-0-0-0--1-1-1-1--3-3-3-3-||-1-1-1-1--0-0-0-0-------|

No bass until drums come in

Ending:

||---------------------------------||----------------------------------|
||---------------------------------||----------------------------------|
||-----------------3---3-----------||----------------------------------|
||-5---5---3---3-----------3---3---||--5---5---7---7---8---8---7---7---|

|---------------------------------||----------------------------------||
|---------------------------------||----------------------------------||
|-----------------3---3-----------||----------------------------------||
|-5---5---3---3-----------3---3---||--1---1---3---3---5---5---3---3---||

|---------------------------------|----------------------------------|
|---------------------------------|----------------------------------|
|---------------------------------|----------------------------------|
|-1---1---3---3---5---5---7---7---|--8---8---7---7---5---5---3---3---|

                                   x3
||----------------------------------||
||----------------------------------||
||----------------------------------||
||--8---8---7---7---5---5---3---3---||


and that's the whole song.
Tap to rate this tab
 
# A B C D E F G H I J K L M N O P Q R S T U V W X Y Z