Misc Unsigned Bands - Chasing Stars - Why tab

-------------------------------------------------------------------------------
			     Why - Chasing stars
-------------------------------------------------------------------------------
Tabbed by :P
Email: :O

Tuning:Standard
Key of C with capo on the 2nd fret

Intro x2
Both Guitars (clean w/ echo)
Am F C Em x3 then Am F Dm Em


Verse
Gtr 1 (clean w/ echo)
e|---------------------------------------------------------------------------|
B|---------------------------------------------------------------------------|
G|------6---------------6----------------4---------4-------------------------|
D|----6---6-----------6---6------------4---4-----4---4-----------------------|
A|--4---------------0----------x3----2---------0----------x3-----------------|
E|---------------------------------------------------------------------------|
whole thing x3 ---^

Gtr 2 (overdrive)
C#m Asus4 x3 then Bm Em x3

Chorus x2
Both guitars (overdrive)
Am F C Em Bm x2 then Am F Dm E Bm


Repeat Verse

Repeat Chorus

Bridge
Guitar 2 (clean on bass pickup w/ echo)
Play intro again ---^

Guitar 1

e|---------------------------------------------------------------------------|
B|---------------------------------------------------------------------------|
G|---------------------------------------------------------------------------|
D|------0-------0------0-------0------0--------------------------------------|
A|----2-------2------0-------0------0----------------------------------------|
E|--3-------0------3-------2----3--------------------------------------------|    x4


Outro
Both guitars play chorus x1 clean x2 overdrive
Tap to rate this tab
 
# A B C D E F G H I J K L M N O P Q R S T U V W X Y Z