Misc Unsigned Bands - Uzair Jaswal - Yaheen tab

I figured that out..i am not sure its accurate..but it sounds pretty much same...

Chord Used: Asus2 and E

Intro Solo sequence: 

--------------------------------e
--------0-----------0-----------B
-----9----9------9-----9--------G
--7----------7------------------D
--------------------------------A
--------------------------------E

--------------------------------e
--------0-----------0-----------B
-----9----9------9-----9--------G
--6----------6------------------D
--------------------------------A
--------------------------------E
Tap to rate this tab
 
# A B C D E F G H I J K L M N O P Q R S T U V W X Y Z