Song name
# A B C D E F G H I J K L M N O P Q R S T U V W X Y Z

Misc Unsigned Bands - Supergonzo - Sucker tab

-------------------------------------------------------------------------------
			     Sucker - Supergonzo
-------------------------------------------------------------------------------
Tabbed by: Otta
Email: simott@lycos.com

Tuning: Standard

         x2  for every starting part
e|--------------------------------------------------------------------------|
B|--------------------------------------------------------------------------|
G|--------------------------------------------------------------------------|
D|--------4-4-5-5-6-------12------------12----------------------------------|
A|--------4-4-5-5-6----11----11---------11----------------------------------|
E|--------0-0-0-0-0-------------12------12----------------------------------|

Bridge x2:
                    a lot of slides on the last two strings using a note on B string and its 5th
e|----0------------------/-/-/-/-/-/-/-/-/-/-/-/-/-/-/-/-/------------------|
B|----0------------------/-/-/-/-/-/-/-/-/-/-/-/-/-/-/-/-/------------------|
G|----0---------------------------------------------------------------------|
D|----0---------------------------------------------------------------------|
A|----0---------------------------------------------------------------------|
E|----0---------------------------------------------------------------------|


Outro (solo, to repeat many times) -listen to the song for real timing-:
e|--------------------------------------------------------------------------|
B|------0-0-0-0-------------------------------------------------------------|
G|------4-0-3-0-------------------------------------------------------------|
D|--------------------------------------------------------------------------|
A|--------------------------------------------------------------------------|
E|--------------------------------------------------------------------------|


************************************

| /   slide up
| \   slide down
| h   hammer-on
| p   pull-off
| ~   vibrato
| +   harmonic
| x   Mute note
| b   Bend
| pb  Pre-bend
| br  Bend release
| pbr Pre-bend release
| brb Bend release bend

************************************
Tap to rate this tab
 
# A B C D E F G H I J K L M N O P Q R S T U V W X Y Z