Song name
# A B C D E F G H I J K L M N O P Q R S T U V W X Y Z

Misc Unsigned Bands - Outrun The Gun - Words Of Hope tab

Hey guys!!! This is my first tabs so....go easy on me!!!
Its kinda the intro and the verse bit.........but i guess ill have to figure out 
the rest!!!......Have fun
Intro:
D#|-----------------|------------------------|
A#|--------13-------|------------------------|
F#|--12h14----12h14-|------10-14-12-10-------|
C#|-0-----0--0------|-8-12-------------14-10-|
G#|-----------------|------------------------|
C#|-----------------|------------------------|

D#|-----------------|-17-13------------------|
A#|--------13-------|-------15----15---------|
F#|--12h14----12h14-|----------14----14------|
C#|-0-----0--0------|-------------------15-12|
G#|-----------------|------------------------|
C#|-----------------|------------------------|

D#|-----------------|------------------------|
A#|--------13-------|------------------------|
F#|--12h14----12h14-|------10-14-12-10-------|
C#|-0-----0--0------|-8-12-------------14-10-|
G#|-----------------|------------------------|
C#|-----------------|------------------------|

D#|-----------------|-17-13------------------|
A#|--------13-------|-------15----15---------|
F#|--12h14----12h14-|----------14----14------|
C#|-0-----0--0------|-------------------15-12|
G#|-----------------|------------------------|
C#|-----------------|------------------------|

Verse:
D#|-------------------------|-------------------------|
A#|-------------------------|-------------------------|
F#|-------------------------|-------------------------|
C#|00000-00000-00000--00-00-|-00000-00000-00000-0-----|
G#|00000-00000-00000--00-00-|-00000-00000-00000-0-(3)-|
C#|00000-00000-00000--00-00-|-00000-00000-00000-0-----|

D#|-------------------------|-------------------------|
A#|-------------------------|-------------------------|
F#|-------------------------|-------------------------|
C#|00000-00000-00000--00-00-|-00000-00000-00000-------|
G#|00000-00000-00000--00-00-|-00000-00000-00000-------|
C#|00000-00000-00000--00-00-|-00000-00000-00000-------|

D#|-----------------|-----------------|--------|--------|-------|-----|
A#|-----------------|-----------------|--------|--------|-------|-----|
F#|-----------17-17-|-----------17-17-|14-15-17|12-12-14|10-10-9|10s12|
C#|12-12s15-15------|-12-12s15-15-----|--------|--------|-------|-----|X3
G#|-----------------|-----------------|--------|--------|-------|-----|
C#|-----------------|-----------------|--------|--------|-------|-----|

D#|-----------------|-----------------|
A#|-----------------|-----------------|
F#|-----------17-17-|-----------17-17-|
C#|12-12s15-15------|12-12s15-15------|
G#|-----------------|-----------------|
C#|-----------------|-----------------|

D#|--------|--------|---------------------|
A#|--------|--------|18-17-15-------------|
F#|14-15-17|12-12-14|--------17-15-14-----|
C#|--------|--------|----------------17-12|
G#|--------|--------|---------------------|
C#|--------|--------|---------------------|
Tap to rate this tab
 
# A B C D E F G H I J K L M N O P Q R S T U V W X Y Z