Song name
# A B C D E F G H I J K L M N O P Q R S T U V W X Y Z

Misc Unsigned Bands - Edge Of Night - Fall Into Nightmares tab

----------------------------------------------------------------------------
		Fall Into Nightmares - Edge Of Night
----------------------------------------------------------------------------
Tabbed by: Blackbolt
Email: blackbolt_rulez@hotmail.com

Tuning:Standard - E,A,D,G,B,e

Intro:Guitar 1
e|--------------------------------------------------------------------|
B|--------------------------------------------------------------------|
G|--------------------------------------------------------------------|
D|-----2---------2---------2----------2-------------------------------|
A|-0-3--3-2--3-3--3-2--5-3---3-2--3-3--3-2----------------------------|
E|--------------------------------------------------------------------|x2

Guitar 1
e|--------------------------------------------------------------------|
B|--------------------------------------------------------------------|
G|--------------------------------------------------------------------|
D|-----2---------2---------2----------2-------------------------------|
A|-0-3--3-2--3-3--3-2--5-3---3-2--3-3--3-2----------------------------|
E|--------------------------------------------------------------------|

Guitar 2
e|-------------------------------------------------------------------|
B|-------------------------------------------------------------------|
G|-------------------------------------------------------------------|
D|-2~---------5~--------------------7~-------------------------------|
A|-0~---------3~---------5~---------5~-------------------------------|
E|-----------------------3~------------------------------------------|

Pre-Verse:Guitar 1
e|----------------------------------------------------------------|
B|----------------------------------------------------------------|
G|----------------------------------------------------------------|
D|-------2-----------2-----------2-----------2--------------------|
A|-3-2-3---3-2-3-2-3---3-2-3-2-3---3-2-3-2-3---3-2--5-3-2-5-3-2---|
E|----------------------------------------------------------------|

e|-------------------------------------------------------------------|
B|-------------------------------------------------------------------|
G|-------------------------------------------------------------------|
D|-------------------------------------------------------------------|
A|-5-3-2-5-3-2--3-2-3-5-3-2-3-2-3-5-3-2-3-2-3-5-3-2-5-3-2-5-3-2------|
E|-------------------------------------------------------------------|x2

Guitar 2
e|-------------------------------------------------------------------|
B|-------------------------------------------------------------------|
G|-------------------------------------------------------------------|
D|-2------2------5------5--------------------7------7----------------|
A|-0-0000-0-0000-3-3333-3-3333-5------5------5-5555-5-5555-----------|
E|-----------------------------3-3333-3-3333-------------------------|x2

Verse: Both Guitars
e|-------------------------------------------------------------------|
B|-------------------------------------------------------------------|
G|-------------------------------------------------------------------|
D|-2------2------5------5--------------------7------7----------------|
A|-0-0000-0-0000-3-3333-3-3333-5------5------5-5555-5-5555-----------|
E|-----------------------------3-3333-3-3333-------------------------|x2

Chorus: Both Guitars

e|-------------------------------------------------------------------|
B|-------------------------------------------------------------------|
G|-------------------------------------------------------------------|
D|-2------5------7----------------------2------5------7--------------|
A|-0-0000-3-3333-5-5555-7-5-3-5-3-2-3-0-0-0000-3-3333-5-5555-5--5--5-|
E|-----------------------------------------------------------3--3--3-|x2

Pre-Verse

Verse

Chorus

Intro

Chorus

Chorus


************************************

| /   slide up
| \   slide down
| h   hammer-on
| p   pull-off
| ~   vibrato
| +   harmonic
| x   Mute note
| b   Bend
| pb  Pre-bend
| br  Bend release
| pbr Pre-bend release
| brb Bend release bend

************************************
Tap to rate this tab
 
# A B C D E F G H I J K L M N O P Q R S T U V W X Y Z