Song name
# A B C D E F G H I J K L M N O P Q R S T U V W X Y Z

Misc Unsigned Bands - Taze - Forever chords

Capo 2nd fret


Intro
-------------------------------------|
-------------------------------------|
-------0--------0--------0-------0---|
----2----2----2--------0---0---0--0--|       X4
--2---------3------------------------|
-------------------3---------2-------|


----------------------------0--------|
----0-------1------3---------0-------|
-----0-------0------0----------------|
--2-------2--------------------------|       X2
--2-------3-------2-------2----------|
------------------3-------2----------|


Bridge

-------------------------------------|
-------------------------------------|
-------0--------0--------0-------0---|
----2----2----2--------0---0---0--0--|
--2---------3------------------------|
-------------------3---------2-------|


Chores

----------------------------0--------|
----0-------1------3---------0-------|
-----0-------0------0----------------|
--2-------2--------------------------|
--2-------3-------2-------2----------|
------------------3-------2----------|
Tap to rate this tab
 
# A B C D E F G H I J K L M N O P Q R S T U V W X Y Z