Song name
# A B C D E F G H I J K L M N O P Q R S T U V W X Y Z

Misc Unsigned Bands - Cursed By Reason - No Sympathy For The Damned tab

i tabbed this out by ear on guitar and im almost certain that it is 100%. lemme
know what you think :p
http://www.youtube.com/watch?v=BP9gN9u2XhQ <-- my cover of this song


intro
--------------------------------------------------------------------|
--------------------------------------------------------------------|
--------------------------------------------------------------------|
-0~----------------------------------7~-----------------------------|
-0~----------------------------------5~-----------------------------|
-0~-----------------------------------------------------------------|

--------------------------------------------------------------------|
--------------------------------------------------------------------|
--------------------------------------------------------------------|
--------------------------------------------------------------------|
-000-000-5-000-000-5H8-777-777-4-777-777-4H7-888-888-8-888-888-8H10-|
-000-000---000-000-----777-777---777-777-----888-888---888-888------|

--------------------------------|
--------------------------------|
----------------------9H12-7H10-|
------------------8H11----------| <-----------------| repeat this part twice then second time
777-777-7-777-7H10--------------|      end on C|0~--|
777-777---777-------------------|             G|0~--|
                                              C|0~

verse
------------------------------------------------------------|
------------------------------------------------------------|
------------------------------------------------------------|
-------------8-7------------10--8-7-8-7~--------------------|
---5--5--5-7----10-8---8--8---------------------------------|
-00-00-00-0-0--------88-88-8---8-8--------------------------|

------------------------------------------------------------|
------------------------------------------------------------|
------------------------------------------------------------|
-----------8-7----------------------------------------------|
---5--5--5----10-8---8--8---7-7-7-8-7~----------------------|
-00-00-00-0--------88-88--77-7-7----------------------------|

verse 2
------------------------------------------------------------|
------------------------------------------------------------|
------------------------------------------------------------|
-000-000-0-0-000-000----------000-000-0-0-------------------|
-000-000-0-0-000-000-5H8P5----000-000-0-0-5H8P5----4H7P4----|
-000-000-0-0-000-000------8-7-000-000-0-0------8-7------7-5-|

-------------------------------------------------------------|
-------------------------------------------------------------|
-------------------------------------------------------------|
-888-888-8-8-888-888----------777-777-7----------------------|
-888-888-8-8-888-888-5H8P5----777-777-7--8-4-7-5*------------|
-888-888-8-8-888-888------8~--777-777-7-0-0-0-0--------------|

repeat twice except second time instead of

C---------------------|
G-8-4-7-5*------------|
C0-0-0-0--------------|

play

C-7H8P7
G------10-8-7-8-5
C-


chorus (Ashley's part)
-----------------------------------------------------------------|
-----------------------------------------------------------------|
-3-0-3-0-3-0-3-0-7-3-7-3-7-3-7-3-10-7-10-7-10-7-10-7-8-8-7-8-7\3-|
-----------------------------------------------------------------|
-----------------------------------------------------------------|
-----------------------------------------------------------------|

end chorus on
--------------------------------------------|
--------------------------------------------|
--------------------------------------------|
-3-0-3-0-3-0-3-0-7-3-7-3-7-3-7-3-1~--4~--3~-|
---------------------------------1~--4~--3~-|
---------------------------------1~--4~--3~-|

Breakdown #1 repeat as needed
----------------------------------------------------|
----------------------------------------------------|
----------------------------------------------------|
-000-000-0~-000-00-----000-000-0~-000-00-4-5-4------|
-000-000-0~-000-00-000-000-000-0~-000-00-3-3-3------|
-000-000-0~-000-00-111-000-000-0~-000-00------------|

Breakdown #2
----------------------------------------------------|
----------------------------------------------------|
----------------------------------------------------|
-000-000-0-0-000-000---------000-000-0-0------------|
-000-000-0-0-000-000---------000-000-0-0------------|
-000-000-0-0-000-000-1-4-1-0-000-000-0-0------------|

----------------------------------------------------|
----------------------------------------------------|
----------------------------------------------------|
-000-000-0-0-000-000---------000-000-0-0------------|
-000-000-0-0-000-000---------000-000-0-0-3*---------|
-000-000-0-0-000-000-1-4-1-0-000-000-0-0------------|

repeat as needed
end on
----------------------------------------------------|
----------------------------------------------------|
----------------------------------------------------|
6-5-5-1-1-1-0---------------------------------------|
6-5-5-1-1-1-0---------------------------------------|
6-5-5-1-1-1-0---------------------------------------|

part during solo (sorry i havnt figured out the solo yet)

and im not gonna tab the rhythm part for the solo for it is fairly obvious
(its just the like verse except galloped and take the the between notes)
but if you cant figure it out ill gladly tab it out for you later
Tap to rate this tab
 
# A B C D E F G H I J K L M N O P Q R S T U V W X Y Z