Misc Unsigned Bands - Jeff Pianki - If Only tab

-------------------------------------------------------------------------------
			     If Only - Jeff Pianki
-------------------------------------------------------------------------------
Tabbed by: xparagonx
Email: xparagonx@aol.com

Tuning: standard

Verse

     C             Cmaj7           Dm7             G7
e|-------------------------------------------------------------3-------------|
B|-------5------5------5-------5-------6-------6------3----------------------|
G|-------5------5------4-------4-------5-------5---------4--------4----------|
D|-------5------5------5-------5-------7-------7------------3--------3-------|
A|---3-------------3---------------5-----------------------------------------|
E|----------3--------------3---------------5-------3-------------------------|

Chorus

    Dm7      G7       C           Am          Dm7      G7        C
e|---------------------------------------------------------------------------|
B|-----6--------3--------1-----------1-----------6--------3------1---11--111-|
G|-----------------------------0-----------2---------------------0---00--000-|
D|--------7--------3--------2-----------2-----------7--------3---2---22--222-|
A|--5-----------------3-----------0-----------5------------------3---33--333-|
E|-----------3-----------------------------------------3---------------------|


    Cmaj7
e|---------------------------------------------------------------------------|
B|--0--00--000---------------------------------------------------------------|
G|--0--00--000---------------------------------------------------------------|
D|--2--22--222---------------------------------------------------------------|
A|--3--33--333---------------------------------------------------------------|
E|---------------------------------------------------------------------------|

Verse

   C
Bonjour,
       Cmaj7
Como estas,
       Dm7
Konichiwa,
      G7
Guten tag.

C
Ciao,
   Cmaj7
Ni hao,
            Dm7                  G7
I'd love to chat, but don't know how.

   C
Mi amour,
   Cmaj7
Je t'aime,
        Dm7
Come se bella,
        G7
Say it again.


Chorus

    Dm7         G7          C    Am
How lovely this life would be,
   Dm7            G7       C
If only you could speak to me.


Verse

        C
Excusez-moi,
             Cmaj7
What is your name?
             Dm7
What is this place
               G7
From where you came?

   C
Perdon,
        Cmaj7
Attencion,
         Dm7
Louis vuitton,
        G7
Dom Perignon.


Chorus

    Dm7         G7         C    Am
How lovely this life would be,
   Dm7            G7       C
If only you could speak to me.

************************************

| /   slide up
| \   slide down
| h   hammer-on
| p   pull-off
| ~   vibrato
| +   harmonic
| x   Mute note
| b   Bend
| pb  Pre-bend
| br  Bend release
| pbr Pre-bend release
| brb Bend release bend

************************************
Tap to rate this tab
 
# A B C D E F G H I J K L M N O P Q R S T U V W X Y Z