Song name
# A B C D E F G H I J K L M N O P Q R S T U V W X Y Z

Misc Unsigned Bands - Surf Nazis Must Die - Worthless Sunday tab

Worthless Sunday
      by
Surf Nazis Must Die

Hell yeah, Yuri AKA El_Trovyante here again. There's a slight variation in the third 
he plays the last riff, but I think you can figure it out quite easy. Also, it doesn't 
matter, cause it's Powerviolence, honey.
Surf Heil from Brazil!
Look me up in Last.fm

Riff 1
e---------------------------------------------------------------------------|
B---------------------------------------------------------------------------|
G---------------------------------------------------------------------------|
D-5-5-5-5-5-5-5-4-4-4--5-5-5-5-5-5-5-4-4-7-7--5-5-5-5-5-5-5-4-4-4--5--5-5-5-|
A-5-5-5-5-5-5-5-4-4-4--5-5-5-5-5-5-5-4-4-7-7--5-5-5-5-5-5-5-4-4-4--5--5-5-5-|
E-3-3-3-3-3-3-3-2-2-2--3-3-3-3-3-3-3-2-2-5-5--3-3-3-3-3-3-3-2-2-2--3--3-3-3-|

Riff 2 (go nuts on the last chord)
e-----------------------------------------------------------------------|
B-----------------------------------------------------------------------|
G-9-9------------------9-9------------------9-9-------------------------|
D-9-9-9-9-11-11-11-11--9-9-9-9-11-11-11-11--9-9-9-9-11-11-9-9-7-7-9-9-6-|
A-7-7-9-9-11-11-11-11--7-7-9-9-11-11-11-11--7-7-9-9-11-11-9-9-7-7-9-9-6-|
E-----7-7-9--9--9--9-------7-7-9--9--9--9-------7-7-9--9--7-7-5-5-7-7-4-|

Riff 3
e-------------------------------------------------------|
B-------------------------------------------------------|
G-------------------------------------------------------|
D-6-6-6-6-6-6-6-4-4-4-6-6-6-6-6-6-6-4-4-4--6--6--6--6---|
A-6-6-6-6-6-6-6-4-4-4-6-6-6-6-6-6-6-4-4-4--6--6--6--6---|
E-4-4-4-4-4-4-4-2-2-2-4-4-4-4-4-4-4-2-2-2--4--4--4--4---|

Structure:

Riff 1
Riff 2
Riff 1 again
Riff 2 (x2)
Riff 3
Tap to rate this tab
 
# A B C D E F G H I J K L M N O P Q R S T U V W X Y Z