Song name
# A B C D E F G H I J K L M N O P Q R S T U V W X Y Z

Misc Unsigned Bands - Surf Nazis Must Die - Im Not Anti-girls Girls Are Anti-me tab

I'm not Anti-girls, Girls are Anti-me
         by
Surf Nazis Must Die

Hell yeah, I noticed there weren't ANY Surf Nazis tabs in the internet, plus, my
band will cover some of their songs, so I got them by ear =D
Enjoy!
Surf Heil from Brazil
Look me up in Last.fm

Intro
e---------|
B---------|
G---------|
D--7-9-10-|
A--7-9-10-|
E--5-7-8--|

Riff 1
e-----------------------------------|
B-----------------------------------|
G--8-8--8-8---------9-9-8-8---------|
D--8-8--8-8-7-7-9-9-9-9-8-8-7-7-9-9-|
A--6-6--6-6-7-7-9-9-7-7-6-6-7-7-9-9-|
E-----------5-5-7-7---------5-5-7-7-|

Riff 2
e----------------------------------|
B----------------------------------|
G--9-8-7-6-5-------9-8-7-6-5-------|
D--9-8-7-6-5-5-5-5-9-8-7-6-5-5-5-5-|
A--7-6-5-4-3-5-5-5-7-6-5-4-3-5-5-5-|
E------------3-3-3-----------3-3-3-|

Riff 3 (not sure, but sounds well)(Palm mute all!)
e--------------------------|
B--------------------------|
G--------------------------|(x2)
D--------------------------|
A--------------5-5-5-4-4-4-|
E--4-4-4-6-6-6-------------|

Riff 4
e-------------------------------------------------------|
B-------------------------------------------------------|
G-8-8-8-8-8----6-6-6-6-6-8-8--8-8-8-8-8-------------8-8-|
D-8-8-8-8-8-6--6-6-6-6-6-8-8--8-8-8-8-8-6-8-8-8-8-8-8-8-|
A-6-6-6-6-6-6--4-4-4-4-4-6-6--6-6-6-6-6-6-8-8-8-8-8-6-6-|
E-----------4---------------------------4-6-6-6-6-6-----|

Structure:
Intro
Riff 1 (x2)
Riff 2 (x3)
Riff 1 (x2)
Riff 2 (x3)
Riff 3
Riff 4 (x3)
Tap to rate this tab
 
# A B C D E F G H I J K L M N O P Q R S T U V W X Y Z