Song name
# A B C D E F G H I J K L M N O P Q R S T U V W X Y Z

Misc Unsigned Bands - Show Me The Skyline - Clocks And Calendars tab

Hey everyone, back again. This is Clocks & Calendars, the opening track from Show Me The
Rain Or Shine EP. I discovered this the other day (I like to go on random sites and
underground pop punk band's debut EP's to get a taste of a new artist) when it was 
and it was really good (You should get it) so I decided to tab out my favorite song off
EP besides It's On Me. So I'm sure I'm 98-100% correct on this one. Enjoy!

Intro (With synth playing):
E--------------------------------------|---------------------|
B--------------------------------------|---------------------|
G--------------------------------------|---------------------|
D--3-3--10-10-3-3-5--12-12--x-x-x-x----|--3-3--7-7--5-5~~~---|
A--3-3--10-10-3-3-5--12-12--x-x-x-x--x3|--3-3--7-7--5-5~~~---|
D--3-3--10-10-3-3-5--12-12--x-x-x-x----|--3-3--7-7--5-5~~~---|

First verse
E--------------------------------------------------|
B--------------------------------------------------|
G--------------------------------------------------|
D--3-3-3-3-3-3-3-3--10-10-10-10-10-10-10-----------|
A--3-3-3-3-3-3-3-3--10-10-10-10-10-10-10-----------|
D--3-3-3-3-3-3-3-3--10-10-10-10-10-10-10-----------|
   . . . . . . .     .  .  .  .  .  .  .

E---------------------------------|----------------------------|
B---------------------------------|----------------------------|
G---------------------------------|----------------------------|
D--5-5-5-5-5-5-5-5--7-7-7--5-5-5--|-5-5-5-5-5-5-5-5--5-5-5-5---|
A--5-5-5-5-5-5-5-5--7-7-7--5-5-5--|-5-5-5-5-5-5-5-5--5-5-5-5---|
D--5-5-5-5-5-5-5-5--7-7-7--5-5-5--|-5-5-5-5-5-5-5-5--5-5-5-5---|
   . . . . . . .    . . .  . . .    . . . . . . .

Verse pt. 2:
E------------------------------------------------------------------------|
B------------------------------------------------------------------------|
G------------------------------------------------------------------------|
D--3-3-3-3-3-3-3-3-10-10-10-10-10-10-10-5-5-5-5-5-5-5-5--7-7-7--5-5-5-5--|x2
A--3-3-3-3-3-3-3-3-10-10-10-10-10-10-10-5-5-5-5-5-5-5-5--7-7-7--5-5-5-5--|
D--3-3-3-3-3-3-3-3-10-10-10-10-10-10-10-5-5-5-5-5-5-5-5--7-7-7--5-5-5-5--|

E-----------------------------------------------------------------------|
B-----------------------------------------------------------------------|
G-----------------------------------------------------------------------|
D--3~-x-x--x-x--x-x--3~-x-x--x-x--x-x--10~-x-x--x-x--x-x--5~~~~-5-5-5-5-|
A--3~-x-x--x-x--x-x--3~-x-x--x-x--x-x--10~-x-x--x-x--x-x--5~~~~-5-5-5-5-|
D--3~-x-x--x-x--x-x--3~-x-x--x-x--x-x--10~-x-x--x-x--x-x--5~~~~-5-5-5-5-|
   Days and daaaays, Counting dooooown...

Chorus:
E--------------------------------------------------|
B--------------------------------------------------|
G--------------------------------------------------|
D-10----3----7---5---3-----------------------------|
A-10x16-3x16-7x8-5x8-3x16--------------------------|
D-10----3----7---5---3-----------------------------|

Preverse 2:
E--------------------------------------|---------------------|
B--------------------------------------|---------------------|
G--------------------------------------|---------------------|
D--3-3--10-10-3-3-5--12-12--x-x-x-x----|--3-3--7-7--5-5~~~---|
A--3-3--10-10-3-3-5--12-12--x-x-x-x--x3|--3-3--7-7--5-5~~~---|
D--3-3--10-10-3-3-5--12-12--x-x-x-x----|--3-3--7-7--5-5~~~---|

Verse 2:
E--------------------------------------------------------------------------|
B--------------------------------------------------------------------------|
G--------------------------------------------------------------------------|
D--3-3-3-3-3-3-3-3-10-10-10-10-10-10-10-10-5-5-5-5-5-5-5-5--7-7-7--5-5-5---|
A--3-3-3-3-3-3-3-3-10-10-10-10-10-10-10-10-5-5-5-5-5-5-5-5--7-7-7--5-5-5---|
D--3-3-3-3-3-3-3-3-10-10-10-10-10-10-10-10-5-5-5-5-5-5-5-5--7-7-7--5-5-5---|
   . . . . . . .    .  .  .  .  .  .  .    . . . . . . .    . . .  . . .

E------------------------------------------------------------------------|
B------------------------------------------------------------------------|
G------------------------------------------------------------------------|
D--3-3-3-3-3-3-3-3-10-10-10-10-10-10-10-5-5-5-5-5-5-5-5--5-5-3-5h7-5-----|
A--3-3-3-3-3-3-3-3-10-10-10-10-10-10-10-5-5-5-5-5-5-5-5--5-5-3-5h7-5-----|
D--3-3-3-3-3-3-3-3-10-10-10-10-10-10-10-5-5-5-5-5-5-5-5--5-5-3-5h7-5-----|
   . . . . . . .    .  .  .  .  .  .    . . . . . . .

Verse pt. 2

Prechorus 2:
E----------------------------------------------------------------------|
B----------------------------------------------------------------------|
G----------------------------------------------------------------------|
D--3~-x-x--x-x--x-x--3~-x-x--x-x--x-x--10~-x-x--x-x--x-x-5~~~~-5-5-5-5-|
A--3~-x-x--x-x--x-x--3~-x-x--x-x--x-x--10~-x-x--x-x--x-x-5~~~~-5-5-5-5-|
D--3~-x-x--x-x--x-x--3~-x-x--x-x--x-x--10~-x-x--x-x--x-x-5~~~~-5-5-5-5-|

Chorus

Bridge: (I haven't seen you in sooo many days....)
E-------------------------------------------------------------------------|
B-------------------------------------------------------------------------|
G-------------------------------------------------------------------------|
D--12-12-12-12-12-12-12-12-12-12-12-12-12-10-3----7----5------------------|
A--12-12-12-12-12-12-12-12-12-12-12-12-12-10-3----7----5------------------|
D--12-12-12-12-12-12-12-12-12-12-12-12-12-10-3x16-7x16-5x16---------------|

E-------------------------------------------------------------------------|
B-------------------------------------------------------------------------|
G-------------------------------------------------------------------------|
D--12-12-12-12-12-12-12-12-12-12-12-12-12-10-3----7----5------------------|
A--12-12-12-12-12-12-12-12-12-12-12-12-12-10-3----7----5------------------|
D--12-12-12-12-12-12-12-12-12-12-12-12-12-10-3x16-7x16-5------------------|

Last chorus:
E------------------------------------------------------------------------|
B------------------------------------------------------------------------|
G------------------------------------------------------------------------|
D--3~-x-x--x-x--x-x--3~-x-x--x-x--x-x--7~-x-x--x-x---5-x-x--x-x--3-------|
A--3~-x-x--x-x--x-x--3~-x-x--x-x--x-x--7~-x-x--x-x---5-x-x--x-x--3x16----|
D--3~-x-x--x-x--x-x--3~-x-x--x-x--x-x--7~-x-x--x-x---5-x-x--x-x--3-------|
                                                                 .
Solo:
E-----------------------------------------------------------------------|
B-----------------------------------------------------------------------|
G-5-5-5-5-5-5-5-5-5-5-5-5-7-9-7-5-2-2-2-2-2-2-2-2-2-2-2-2-7-9-7-5-------|
D-----------------------------------------------------------------------|
A-----------------------------------------------------------------------|
D-----------------------------------------------------------------------|

E----------------------------------------------------------------------|
B----------------------------------------------------------------------|
G--2-2-2-2-2-2-2-2-4-4-4-4-0-0-0-0-0h2~-0h2~-0h2~-0h2~-0h2~-0h2~-0-----|
D------------------------------------------------------------------2-2-|
A----------------------------------------------------------------------|
D----------------------------------------------------------------------|

E-----------------------------------------------------------------------|
B-----------------------------------------------------------------------|
G-5-5-5-5-5-5-5-5-5-5-5-5-7-9-7-5-2-2-2-2-2-2-2-2-2-2-2-2-7-9-7-5-------|
D-----------------------------------------------------------------------|
A-----------------------------------------------------------------------|
D-----------------------------------------------------------------------|

E----------------------------------------------------------------------|
B----------------------------------------------------------------------|
G--2-2-2-2-2-2-2-2-4-4-4-4-0-0-0-0-2-2-2-2-2-2-2-2-9-9-9-9-9-7-7-7-----|
D----------------------------------------------------------------------|
A----------------------------------------------------------------------|
D----------------------------------------------------------------------|

End on (Don't worry, I tried to tab out the synth thinking it was the guitar but it
so don't criticize me for that :P)
E-----------------------------------|
B-----------------------------------|
G-----------------------------------|
D--3-3--10-10-3-3-5--12-12--x-x-x-x-|
A--3-3--10-10-3-3-5--12-12--x-x-x-x-| x3
D--3-3--10-10-3-3-5--12-12--x-x-x-x-|

Alright, that's that. Not a hard song, but fun! Please comment & rate :)

Legend (In order of appearance):

x =Mute the strings with your hand, kind of like harmonics. Except not.
~ =Sustain, let ring
. =Palm Mute
h =Hammer on
I don't think there are any pull offs here, but p =Pull Off anyway.
Tap to rate this tab
 
# A B C D E F G H I J K L M N O P Q R S T U V W X Y Z