Misc Unsigned Bands - Fallen Traitors - Ill Fade Away tab

*Original Music*

Artist - Fallen Traitors
Song - Fade Away 
Album - Deluxe
Year - 2010
(Written by Darius Heath)


Verse -
*Clean, Delayed Guitar (Pedal recommended)*
e-----------------------------------|
B-----------------------------------|
G-----------------------------------|
D---------5---5-5----------5---5----|
A-2---2-2-3---3-3-5---5-5--2-5-2-5--|
E-0---0-0---------3---3-3----2---2--|

Chorus -
*Distorted, Fuzz-Box Guitar (Pedal recommended)*
e-----------------------------------|
B-----------------------------------|
G-4-4-4-4-4-4-4-4-4-4-4-4-4-4-4-4---|
D-5-5-5-5-5-5-5-5-5-5-5-5-5-5-5-5---|
A-5-5-5-5-5-5-5-5-5-5-5-5-5-5-5-5---|
E-3-3-3-3-3-3-3-3-3-3-3-3-3-3-3-3---|

e-----------------------------------|
B-5-5-5-5-5-5-5-5-5-5-5-5-5-5-5-5---|
G-5-5-5-5-5-5-5-5-5-5-5-5-5-5-5-5---|
D-5-5-5-5-5-5-5-5-5-5-5-5-5-5-5-5---|
A-3-3-3-3-3-3-3-3-2-2-2-2-2-2-2-2---|
E-----------------------------------|

Bridge -
*Distorted, Fuzz-Box Guitar (Pedal recommended)*
e-----------------------------------|
B-----------------------------------|
G-9-9-9-9\5-5-5-5/12121212\5---4----|
D--------------------------5-5-4-4--|
A-7-7-7-7\3-3-3-3/10101010\2-5-2-4--|
E----------------------------2---2--|

Outro (x3)-
*Clean, Delayed Guitar (Pedal recommended)*
e---------------------------------------------------|
B---------------------------------------------------|
G-----------------------------------4-(fade out...)-|
D-----------5-5-5-5----------5----4-----------------|
A--2-2-2-2-3-3-3-3--5-5-5-5-2--5-2-2----------------|
E-0-0-0-0----------3-3-3-3----2---------------------|
Tap to rate this tab
 
# A B C D E F G H I J K L M N O P Q R S T U V W X Y Z