Misc Unsigned Bands - As Eyes Go Blind - Horseflip tab

 As Eyes Go Blind - Horseflip 
Tuning: drop C - live tuning: drop D

Intro Riff
D|---------------------------------------------------------------|
A|---------------------------------------------------------------|
F|---------------------------------------------------------------|
C|---------------------------------------------------------------|
G|----2----------------------------------------------------------|
C|4313-101-------------------------------------------------------|

"Run towards the light"
D|---------------------------------------------------------------|
A|---------------------------------------------------------------|
F|---------------------------------------------------------------|
C|---------------------------------------------------------------|
G|0-------65--------------6-5-9-8--------------------------------|
C|0-------43--------------4-3-8-6--------------------------------|

D|---------------------------------------------------------------|
A|---------------------------------------------------------------|
F|---------------------------------------------------------------|
C|---------------------------------------------------------------|
G|0-------65--------------6-5-2222-------------------------------|
C|0-------43--------------4-3-1111-------------------------------|

Breakdown 1
Let palm muted parts ring first time
D|---------------------------------------------------------------|
A|---------------------------------------------------------------|
F|---------------------------------------------------------------|
C|.-.-.-----.---...-.-.---.-.-.----------------------------------|x3
G|0-0-0-----0---000-0-0---0-0-0----------------------------------|
C|1-1-1-----1---111-1-1---1-1-1----------------------------------|

D|---------------------------------------------------------------|
A|---------------------------------------------------------------|
F|---------------------------------------------------------------|
C|.-.-.-----.---...-.-.------------------------------------------|
G|0-0-0-----0---000-0-0------------------------------------------|
C|1-1-1-----1---111-1-1---0-0-0-0--------------------------------|

Break
D|----------------|------------|-----------------------------------|
A|------me--------|----you-----|---josh----------------------------|
F|----------------|------------|-----------------------------------|
C|----------------|------------|-----------------------------------|
G|--6-----5-------|--6-----5---|-----------------------------------|
C|4---4-3---3-1-0-|4---4-3---3-|1-0--------------------------------|

D|----------------------------------------------------------------|
A|----------------------------------------------------------------|
F|----------------------------------------------------------------|x3
C|----------------------------------------------------------------|
G|--6-----5---------6-----5---------------------------------------|
C|4---4-3---3-1-0-4---4-3---3-1-0---------------------------------|

D|----------------------------------------------------------------|
A|----------------------------------------------------------------|
F|----------------------------------------------------------------|
C|----------------------------------------------------------------|
G|--6-----5---------6-----5---------------------------------------|
C|4---4-3---3-1-0-4---4-3---3-4-3---------------------------------|



Speed picking (16th notes)
D|---------------------------------------------------------------|
A|---------------------------------------------------------------|
F|---------------------------------------------------------------|
C|---------------------------------------------------------------|
G|---------------------------------------------------------------|
C|1---4-3-0-------1---4-3-6---4-3--------------------------------|

D|---------------------------------------------------------------|
A|---------------------------------------------------------------|
F|---------------------------------------------------------------|
C|4---8-6-3-------4---8-6-9---8-6--------------------------------|
G|---------------------------------------------------------------|
C|---------------------------------------------------------------|

Open chords
D|---------------------------------------------------------------|
A|---------------------------------------------------------------|
F|---------------------------------------------------------------|
C|---------------------------------------------------------------|
G|1---4-3-0-------1---4-3-6---4-3--------------------------------|
C|1---4-3-0-------1---4-3-6---4-3--------------------------------|

Tom stomp >:O 

D|-----|----------------------------------------------------------|
A|-----|----------------------------------------------------------|
F|-----|----------------------------------------------------------|
C|-----|x3-----------......---------------------------------------|
G|0----|---0-------0-000000---------------------------------------|
C|0----|---0-------0-000000---------------------------------------|
Strum chords (maybe we can split the chords and itll sound cool?)
D|----------------|-----------------------------------------------|
A|----------------|-----------------------------------------------|
F|6---6---6-------|---6---6---4-----------------------------------|
C|7---7---7-------|x3-7---7---2-----------------------------------|
G|0---5---4-------|---0---5---2-----------------------------------|
C|0---0---4-------|---0---0---2-----------------------------------|

Or simplified (3rd chord ^here and vhere is always twice as long)
D|----------------|-----------------------------------------------|
A|----------------|-----------------------------------------------|
F|----------------|-----------------------------------------------|
C|----------------|x3---------------------------------------------|
G|0---0---4-------|---0---0---2-----------------------------------|
C|0---0---4-------|---0---0---2-----------------------------------|

Post chorus part
D|----5-5-5-5-----5-5-5-5-----5-5--------------------------------|
A|----7-7-7-7-----7-7-7-7-----7-7--------------------------------|
F|----6-6-6-6-----6-6-6-6-----6-6--------------------------------|
C|.-.-0-0-0-0-.-.-0-0-0-0-.-.-0-0--------------------------------|x2
G|0-0-0-0-0-0-0-0-0-0-0-0-0-0-0-0--------------------------------|
C|0-0-0-0-0-0-0-0-0-0-0-0-0-0-0-0--------------------------------|

D|---------------------------------------------------------------|
A|---------------------------------------------------------------|
F|----6-6-6-6-----6-6-6-6-----6-6--------------------------------|
C|.-.-6-6-6-6-.-.-7-7-7-7-.-.-7-7--------------------------------|
G|4-4-4-4-4-4-4-4-4-4-4-4-4-4-4-4--------------------------------|
C|4-4-4-4-4-4-4-4-4-4-4-4-4-4-4-4--------------------------------|

D|---------------------------------------------------------------|
A|---------------------------------------------------------------|
F|----5-5-5-5-----5-5-5-5-----5-5--------------------------------|
C|.-.-2-2-2-2-.-.-2-2-2-2-.-.-2-2--------------------------------|
G|2-2-2-2-2-2-2-2-2-2-2-2-2-2-2-2--------------------------------|
C|2-2-2-2-2-2-2-2-2-2-2-2-2-2-2-2--------------------------------|

Another break
D|---------------------------------------------------------------|
A|---------------------------------------------------------------|
F|---------------------------------------------------------------|
C|choke-------choke-------let ring----choke----------------------|
G|0-----------0-----------0-----------0--------------------------|
C|0-----------0-----------0-----------0--------------------------|
Chaos breakdown (one of us will only play the palm muted part. Iíll let you decide)
D|---------------------------------------------------------------|
A|---------------------------------------------------------------|
F|---------------------------------------------------------------|
C|.-6-6-.-6-6-.-6-6-.-6-6-.-6-6-6--------------------------------|
G|0-5-5-0-5-5-0-5-5-0-5-5-0-5-5-5--------------------------------|
C|0-3-3-0-3-3-0-3-3-0-3-3-0-3-3-3--------------------------------|
2 step
D|---------------------------------------------------------------|
A|---------------------------------------------------------------|
F|---------------------------------------------------------------|
C|..----..----.-.-.-.-.-.-.-.-.-.--------------------------------|
G|004---003---0-0-0-0-0-0-0-0-0-0--------------------------------|
C|004---003---0-0-0-0-0-0-0-0-0-0--------------------------------|
D|---------------------------------------------------------------|
A|---------------------------------------------------------------|
F|---------------------------------------------------------------|
C|..----..----.-.-.-.-.-.-...-.-.--------------------------------|
G|004---003---0-0-0-0-0-0-000-0-0--------------------------------|
C|004---003---0-0-0-0-0-0-000-0-0--------------------------------|
Similar riff but not 2 steppy
D|---------------------------------------------------------------|
A|---------------------------------------------------------------|
F|---------------------------------------------------------------|
C|..----..----..----..----..-------------------------------------|x3
G|004---003---004---003---004---3--------------------------------|
C|004---003---004---003---004---3--------------------------------|



D|---------------------------------------------------------------|
A|---------------------------------------------------------------|
F|---------------------------------------------------------------|
C|..----..----..----..-------------------------------------------|
G|004---003---004---003---6-6-6-6--------------------------------|
C|004---003---004---003---6-6-6-6--------------------------------|

THE BREAK DOWN NOTE FOR NOTE (ill do the pre breakdown break down)
Each gap/number equals exactly one 16th note
D|----------------------------------------------------------------|
A|----------------------------------------------------------------|
F|----------------------------------------------------------------|
C|----------------------------------------------------------------|
G|0000--00-00-0000--00-00-00-00-0-0000--00-00-00-00-------00-00-0-|
C|0000--00-00-0000--00-00-00-00-0-0000--00-00-00-00-------00-00-0-|

D|----------------------------------------------------------------|
A|----------------------------------------------------------------|
F|-------------------------------------------------------let ring-|
C|------------------------------------------------------------v---|
G|4444--------------44-44---33-33-3333--------------33-33-----0---|
C|4444--------------44-44---33-33-3333--------------33-33-----0---|
outro
D|---------------------|
A|---------------------|
F|---------------------|
C|---------------------|
G|4444-----------------|
C|4444-----------------|
Tap to rate this tab
 
# A B C D E F G H I J K L M N O P Q R S T U V W X Y Z